Violet Tabs by Hole V3

 Hole - Violet (Live Through This)

 *Lead Guitar

intro

e- -----------3---3-------------------------------------------------------------|
B- -----------3---3-------------------------------------------------------------|
G- -----------0---0-x4----------------------------------------------------------|
D- -6-x5-2-x5-0---0-------------------------------------------------------------|
A- -7----3----2---3-------------------------------------------------------------|
E- -----------3-----------------------------------------------------------------|


riff 1

e- -7----3----3---3-------------------------------------------------------------|
B- -7----3----3---3(don't play this chord the last time)------------------------|
G- -0----0----0---0-x4----------------------------------------------------------|
D- -6-x5-0-x5-0---0-------------------------------------------------------------|
A- -7----3----2---3-------------------------------------------------------------|
E- -----------3-----------------------------------------------------------------|

riff 2

e- -----------------------------------------------------------------------------|
B- -----------------------------------------------------------------------------|
G- -----------------------------------------------------------------------------|
D- -2----3----5-----------------------------------------------------------------|
A- -2-x5-3-x5-5-x10-------------------------------------------------------------|
E- -0----1----3-----------------------------------------------------------------|

pre-chorus

e- -----------------------------------------------------------------------------|
B- -----------------------------------------------------------------------------|
G- -----------------------------------------------------------------------------|
D- ---6-x3/---0-x3/---4-x3----------6-x3/---0-x3/---4-x3------------------------|
A- ---7---/---3---/---5------4-x3---7---/---3---/---5------4-x3-----------------|
E- --------------------------5-----------------------------5--------------------|

chorus

e- -----------------10----------------------------------------------------------|
B- -----------------10----------------------------------------------------------|
G- -9---------------11----------------------------------------------------------|
D- -9-x5-9----10----12-x5-7-----------------------------------------------------|
A- -7----9-x2-10-x5-12----7-x5--------------------------------------------------|
E- ------7-----8----10----5-----------------------------------------------------|

post chorus 1

e- -----------3---3-------------------------------------------------------------|
B- -----------3---3-------------------------------------------------------------|
G- -----------0---0-x4----------------------------------------------------------|
D- -----------0---0-------------------------------------------------------------|
A- -----------2---3-------------------------------------------------------------|
E- -----------3-----------------------------------------------------------------|

pre-chorus 2

e- ---------------------------------7---/---3---/---5----5----------------------|
B- ---------------------------------7---/---3---/---5----5----------------------|
G- ---------------------------------0-x3/---0-x3/---0-x3-0----------------------|
D- ---------------------------------6---/---0---/---4----0----------------------|
A- ---------------------------------7---/---3---/---5----4----------------------|
E- ------------------------------------------------------5----------------------|

riff 3

e- -----------------------------------------------------------------------------|
B- -----------------------------------------------------------------------------|
G- -----------12-x2-9-x3-14-x5-11-x3-0-x3-----------12-x2-9-x3-14-x2-11-x3-7-x5-|
D- -6-x2-9-x3-10----7----12----9-----0----6-x2-9-x3-10----7----12----9-----5----|
A- -7---
(Visited 1 times, 1 visits today)

Comments are closed.