Walking Away Tabs – Smile Empty Soul

  Smile Empty Soul
Song: Walking Away
 Consciousness
Tuning: Drop Db


[Intro] (x2)

e|---------------
B|---------------
G|---------------
D|-5-----6-5-----
A|-3-----3-3-----
E|---------------

1st half of verse (no guitar)

 2nd half of verse (x1)
e|-----------------------------------------------------------------|
B|-----------------------------------------------------------------|
G|-----------------------------------------------------------------|
D|-----------------------------------------------------------------|
A|---------------------------------4-4-4-4-4-4-4-4-1-1-1-1-1-1-1-1-|
E|-3-3-3-3-3-3-3-3-1-1-1-1-1-1-1-1---------------------------------|
   . . . . . . . . . . . . . . . . . . . . . . . . . . . . . . . .
 
e|-----------------------------------------------------------------|
B|-----------------------------------------------------------------|
G|---------------------------------6-6-6-6-6-6-6-6-3-3-3-3-3-3-3---|
D|---------------------------------6-6-6-6-6-6-6-6-3-3-3-3-3-3-3---|
A|---------------------------------4-4-4-4-4-4-4-4-1-1-1-1-1-1-1---|
E|-3-3-3-3-3-3-3-3-1-1-1-1-1-1-1-1---------------------------------|
   . . . . . . . . . . . . . . . .


[Chorus] (x4)

e|-----------------------------------------------------------------|
B|-----------------------------------------------------------------|
G|-----------------5-5-5-5-5-5-5-5-6-6-6-6-6-6-6-6-----------------|
D|-3-3-3-3-3-3-3-3-5-5-5-5-5-5-5-5-6-6-6-6-6-6-6-6-6-6-6-6-6-6-6-6-|
A|-3-3-3-3-3-3-3-3-3-3-3-3-3-3-3-3-4-4-4-4-4-4-4-4-6-6-6-6-6-6-6-6-|
E|-3-3-3-3-3-3-3-3---------------------------------6-6-6-6-6-6-6-6-|


[Pre-Verse Solo] (x2)

e|----------------------------|
B|-9-----9b10r9---7--9b10r9---|
G|----------------------------|
D|----------------------------|
A|----------------------------|
E|----------------------------|

1st half of verse (no guitar)

 2nd half of verse (x1)
e|-----------------------------------------------------------------|
B|-----------------------------------------------------------------|
G|-----------------------------------------------------------------|
D|-----------------------------------------------------------------|
A|---------------------------------4-4-4-4-4-4-4-4-1-1-1-1-1-1-1-1-|
E|-3-3-3-3-3-3-3-3-1-1-1-1-1-1-1-1---------------------------------|
   . . . . . . . . . . . . . . . . . . . . . . . . . . . . . . . .

e|-----------------------------------------------------------------|
B|-----------------------------------------------------------------|
G|---------------------------------6-6-6-6-6-6-6-6-3-3-3-3-3-3-3---|
D|---------------------------------6-6-6-6-6-6-6-6-3-3-3-3-3-3-3---|
A|---------------------------------4-4-4-4-4-4-4-4-1-1-1-1-1-1-1---|
E|-3-3-3-3-3-3-3-3-1-1-1-1-1-1-1-1---------------------------------|
   . . . . . . . . . . . . . . . .


[Chorus] (x4)

e|-----------------------------------------------------------------|
B|-----------------------------------------------------------------|
G|-----------------5-5-5-5-5-5-5-5-6-6-6-6-6-6-6-6-----------------|
D|-3-3-3-3-3-3-3-3-5-5-5-5-5-5-5-5-6-6-6-6-6-6-6-6-6-6-6-6-6-6-6-6-|
A|-3-3-3-3-3-3-3-3-3-3-3-3-3-3-3-3-4-4-4-4-4-4-4-4-6-6-6-6-6-6-6-6-|
E|-3-3-3-3-3-3-3-3---------------------------------6-6-6-6-6-6-6-6-|


[Post-Chorus] (x2)

e|-----------------------------------------------------------------|
B|-----------------------------------------------------------------|
G|---------------------------------3-3-3-3-3-3-3-3-6-6-6-6-6-6-6-6-|
D|-3-3-3-3-3-3-3-3-1-1-1-1-1-1-1-1-3-3-3-3-3-3-3-3-6-6-6-6-6-6-6-6-|
A|-3-3-3-3-3-3-3-3-1-1-1-1-1-1-1-1-1-1-1-1-1-1-1-1-4-4-4-4-4-4-4-4-|
E|-3-3-3-3-3-3-3-3-1-1-1-1-1-1-1-1---------------------------------|


[Bridge]

 (clean except last chord each time) (x4)
e|-----------------------------------------------------------------|
B|-----------------------------------------------------------------|
G|---------------------------------3-3-3-3-3-3-3-3-6-6-6-6-6-6-6-6-|
D|-3-3-3-3-3-3-3-3-1-1-1-1-1-1-1-1-3-3