Wanted Tabs by Boyce Avenue

 ------------------------------------------------------------------------------
			     Boyce Avenue - Wanted
------------------------------------------------------------------------------

Tuning: D# - half step down
        G# - half step down
        C# - half step down
        F# - half step down
        B
        F# - one step up

Intro:

F#|-----0---------------0---------------0---------------0-----------|
B |-0---------------0---------------0---------------0---------------|
F#|---0---------------0---------------0---------------0-------------|
C#|-----------------------------------------------------------------|
G#|-8-----7---------5-----7---------8-----7---------5-----3---------|
D#|-----------------------------------------------------------------|


Verse 1:

F#|-----0---------------0---------------0---------------0-----------|
B |-0---------------0---------------0---------------0---------------|
F#|---0---------------0---------------0---------------0-------------| x2
C#|-----------------------------------------------------------------|
G#|-8-----7---------5-----7---------8-----7---------5-----3---------|
D#|-----------------------------------------------------------------|


Verse 2:

F#|-----0-------0-------0-------0-------0-------0-------0-------0---|
B |-0-------0-------0-------0-------0-------0-------0-------0-------|
F#|---0-------0---0---0-------0---0---0-------0---0---0-------0---0-|
C#|-----------------------------------------------------------------|
G#|-8-----7---------5-----7---------8-----7---------5-----3---------|
D#|-----------------------------------------------------------------|

F#|-----0-------0-------0-------0-------0-------0-------0-----------|
B |-0-------0-------0-------0-------0-------0-------0---------------|
F#|---0-------0---0---0-------0---0---0-------0---0---0-------------|
C#|-----------------------------------------------------------------|
G#|-8-----7---------5-----7---------8-----7---------5-----3---------|
D#|-----------------------------------------------------------------|


Chorus:

F#|-----0-----0---------0-----0---------0-----0---------0-----0-----|
B |---0-----0---0-----0-----0---0-----0-----0---0-----0-----0---0---|
F#|-5-----4-------4-2-----0-------0-5-----4-------4-2-----5---------| x2
C#|-----------------------------------------------------------------|
G#|-----------------------3-------------------------------3-------2-|
D#|-5-----3---------1---------------5-----3---------1---------------|

                                                              + + +
F#|-----0-----0-------------------------0-------0-------0---------12|
B |---0-----0---0-------------------0-------0-------0---------12----|
F#|-5-----4-------4-2-----------------0-------0---0---0---------12--|
C#|-----------------------------------------------------------------|
G#|---------------------------------8-----7---------5---------------|
D#|-5-----3---------1-------------------------------------8---------|


Verse 3:

F#|-----0-------0-------0-------0-------0-------0-------0-------0---|
B |-0-------0-------0-------0-------0-------0-------0-------0-------|
F#|---0-------0---0---0-------0---0---0-------0---0---0-------0---0-|
C#|-----------------------------------------------------------------|
G#|-8-----7---------5-----7---------8-----7---------5-----3---------|
D#|-----------------------------------------------------------------|

F#|-----0-------0-------0-------0-------0-------0-------0-----------|
B |-0-------0-------0-------0-------0-------0-------0---------------|
F#|---0-------0---0---0-------0---0---0-------0---0---0-------------|
C#|-----------------------------------------------------------------|
G#|-8-----7---------5-----7---------8-----7---------5-----3---------|
D#|-----------------------------------------------------------------|


Chorus:

F#|-----0-----0---------0-----0---------0-----0---------0-----0----

Comments are closed.