Wasted Wounded Tabs – Santa Cruz

 SANTA CRUZ
WASTED AND WOUNDED
Tuning: Eb (eb Bb Gb Db Ab Eb)
[Intro]
lead (w/delay)
D#|-15----14-------17----15-|----14-------------------|-------------------------|-----------------------|
A#|----12----15-12----12----|-12----12-15-12-12-13-12-|-13-12----------------12-|-x-12-------12-x-------|
F#|-------------------------|-------------------------|-------12----------12----|------14-12------14-12-|
C#|-------------------------|-------------------------|-------------------------|-----------------------| 
G#|-------------------------|-------------------------|----------15-x-15--------|-----------------------|
D#|-------------------------|-------------------------|-------------------------|-----------------------|
rhythm
D#|--------------------------------|-----------------------------|
A#|--------------------------------|-----------------------------|
F#|--------------------------------|-----------------------------|
C#|--------------------------------|-----5-5-----7p5---8p5---7p5-|
G#|--------------------------------|-5h7-----7-5-----7-----7-----|
D#|-/12\-0-0--0-0--0-0-0--0-0--0-0-|-----------------------------|
pm     . .  .    . .    .    .         . . . .     .     .      
D#|---------------------------|------------------------| 
A#|---------------------------|------------------------|
F#|---------------------------|---------------------7*-| Repeat previous 4 bars
C#|---------------------------|-9p5---8p5---7p5--------|
G#|---------------------------|-----7-----7-----7-7----|
D#|-0-0--0-0--0-0-0--0-0--0-0-|------------------------|
pm. .  .    . .    .    .         .     .     . .
lead
D#|---------------------------|-------------------------------------------|
A#|---------------------------|-------------------------------------------|
F#|---------------------------|-------12-12-------14p12----15p12----14p12-|
C#|---------------------------|-12h14-------14-12-------14-------14-------|
G#|---------------------------|-------------------------------------------|
D#|-0-0--0-0--0-0-0--0-0--0-0-|-------------------------------------------|
pm. .  .    . .    .    .           .  .  .  .        .        .         
D#|---------------------------|-----------------------------------|
A#|---------------------------|-------------------------------15*-|
F#|---------------------------|-16p12----15p12----14p12-----------| Repeat previous 4 bars
C#|---------------------------|-------14-------14-------14-14-----|
G#|---------------------------|-----------------------------------|
D#|-0-0--0-0--0-0-0--0-0--0-0-|-----------------------------------|
pm. .  .    . .    .    .           .        .        .  .
[Verse]
both guitars
D#|------------|---------------------|------------|-------------------|
A#|------------|---------------------|------------|--------------3----|
F#|------------|---------------------|------------|--------------2--2-|
C#|------------|---------------------|------------|--------------0--2-|
G#|--------2---|-----------------5---|--------2---|-----------------0-|
D#|-0-0--0-0---|--0-0--/6-5-3-/6---3-|-0-0--0-0---|--0-0--/6-5-3------|
pm. .  .        . .                  . .  .        . .
D#|-----------------------|---------------------|-----------------------|-------------------|
A#|-----------------------|---------------------|-----------------------|-------------------|
F#|-----------------------|---------------------|-----------------------|-------------------|
C#|-----------------------|---------------------|-----------------------|-------------------|
G#|-2-2--2-2--2-2--2-2--2-|----------------5----|-2-2--2-2--2-2--2-2--2-|-----------5--7--8-|
D#|-0-0--0-0--0-0--0-0--0-|-0-0--/6-5-3-/6---3*-|-0-0--0-0--0-0--0-0--0-|-0-0--/6-5-3--5--6-|
pm. .  . .  . .  . .      . .                   . .  . .  . .  . .      . .
[Pre-Chorus]
both guitars
D#|--------0---|--------0---|--------0-----|
A#|------0-----|-3----3-----|--------------|
F#|------------|-2----------|-5----5-----5-|
C#|-