Were Open Tonight chords – Wings

 ---------------------------------------------------------------------------
                We're Open Tonight – Wings
---------------------------------------------------------------------------
: maguri
Tuning: Standard

Wings
We're Open Tonight (1979)
(McCartney)

From: "Back to the Egg"

---------------------------------------------------------------------------
CHORDS

     E-A-D-G-B-E
 G6    3-x-0-4-3-0
 Gm6   3-x-0-3-3-0

---------------------------------------------------------------------------

INTRO / VERSE
   G6 Gm6 
  1 + 2 + 3 + 4 +  1 + 2 + 3 + 4 +  
e|------0-------0-|------0-------0-|
B|----8-------8---|----8-------8---|
G|--7-------7-----|--7-------7-----|
D|9-------9-------|8-------8-------|
A|----------------|----------------|
E|----------------|----------------|
BREAK
   G6 Gm6 
  1 + 2 + 3 + 4 +  1 + 2 + 3 + 4 +  
e|------0-------0-|------0---------|
B|----8-------8---|----8-----------|
G|--7-------7-----|--7-------------|
D|9-------9-------|8---------------|
A|----------------|----------------|
E|----------------|----------------|

CODA
   G6 Gm6 
  1 + 2 + 3 + 4 +  1 + 2 +    
e|------0-------0-|--------|0
B|----8-------8---|--8---7-|8
G|--7-------7-----|11--9---|7
D|9-------9-------|8---8---|8
A|----------------|--------|
E|----------------|--------|

---------------------------------------------------------------------------

INTRO
|  G6  |  Gm6  |  G6  |  Gm6  |

 G6 Gm6          
  We're open tonight for fun
 G6 Gm6          
  So bring all your friends, come on
 G6 Gm6 G6 Gm6  [Break]
  We're open tonight, come one, come all

 G6 Gm6          
  We're opening all our doors
 G6 Gm6          
  We're clearing back all the floors
 G6 Gm6 G6 Gm6  [Break]
  We're open tonight, come one, come all

|  G6  |  Gm6  |  G6  |  Gm6  |
Oooh ...
  G6 Gm6 G6 Gm6  
          Come one, come all
 G6 Gm6  [CODA]
   We're open tonight
(Visited 1 times, 1 visits today)

Comments are closed.