and i tabbed it out by ear. Also i've only been playing guitar for less than three 
months but this tab is almost perfect. If you have any questions/suggestions email me at 
jpleve54@stu.jjc.edu


[Intro]

D#|--------------------------------------------------------------------------------------|
A#|--------------------------------------------------------------------------------------| Play twice
F#|--------------------------------------------------------------------------------------| 
C#|-5----------------7-7-5----------------2-4/5----------------7-7--2-4-5----7-----------|
G#|-5--0-0-0--0-0-0--7-7-5--0-0-0--0-0-0--2-4/5--0-0-0--0-0-0--7-7--2-4-5----7-----------|
C#|-5--0-0-0--0-0-0--7-7-5--0-0-0--0-0-0--2-4/5--0-0-0--0-0-0--7-7--2-4-5b---7-----------|
       * * *  * * *         * * *  * * *         * * *  * * *


[Verse]

We fell asleep..

D#|--------------------------------------------------------------------------------------|
A#|--------------------------------------------------------------------------------------| Play twice
F#|--------------------------------------------------------------------------------------|
C#|-\2-------7-7-5-------7-7--9-12-7--7-7--4-4-5--7-5------------------------------------|
G#|-\2--0-0--7-7-5--0-0--7-7--9-12-7--7-7--4-4-5--7-5------------------------------------|
C#|-\2--0-0--7-7-5--0-0--7-7--9-12-7--7-7--4-4-5--7-5------------------------------------|
        * *         * *   


[Bridge]

So if you miss me..

D#|--------------------------------------------------------------------------------------|
A#|--------------------------------------------------------------------------------------|
F#|--------------------------------------------------------------------------------------|
C#|-9-7-5--5-5-5--9-7-5--7-7-7--9-7-5--5-5-5--9-9-9-7------------------------------------|
G#|-9-7-5--5-5-5--9-7-5--7-7-7--9-7-5--5-5-5--9-9-9-7------------------------------------|
C#|-9-7-5--5-5-5--9-7-5--7-7-7--9-7-5--5-5-5--9-9-9-7------------------------------------|

[Chorus] So swim back to me..

D#|--------------------------------------------------------------------------------------|
A#|--------------------------------------------------------------------------------------|
F#|--------------------------------------------------------------------------------------|
C#|-9-9-9-9-7-7-7-7-5-5-5-5-2-2-4/5--7-7-7-7-5-5-5-5-2-4-5-------------------------------|
G#|-9-9-9-9-7-7-7-7-5-5-5-5-2-2-4/5--7-7-7-7-5-5-5-5-2-4-5-------------------------------|
C#|-9-9-9-9-7-7-7-7-5-5-5-5-2-2-4/5--7-7-7-7-5-5-5-5-2-4-5b------------------------------|

D#|--------------------------------------------------------------------------------------|
A#|--------------------------------------------------------------------------------------|
F#|--------------------------------------------------------------------------------------|
C#|-7-5-------7-7-5---------2-4/5-------7-7--2-4-5---------------------------------------|
G#|-7-5--0-0--7-7-5--0-0-0--2-4/5--0-0--7-7--2-4-5---------------------------------------|
C#|-7-5--0-0--7-7-5--0-0-0--2-4/5--0-0--7-7--2-4-5b--------------------------------------|
         * *         * * *         * *
       
[Then]
 
D#|--------------------------------------------------------------------------------------|
A#|--------------------------------------------------------------------------------------|
F#|--------------------------------------------------------------------------------------|
C#|-7-5-4-2/-----------------------------------------------------------------------------|
G#|-7-5-4-2/-----------------------------------------------------------------------------|
C#|-7-5-4-2/-----------------------------------------------------------------------------|

[Verse] It's you with those sleepy eyes..

D#|--------------------------------------------------------------------------------------|
A#|--------------------------------------------------------------------------------------|