So Much Light - When Time Topples The Obelisk

Capo on 2nd fret~~

e|---7-------------3------2------------------------------------------------------------------------------|
B|-----8-------------0------0--------------0----------------0h3/5--0--------0---------0--------0---------|
G|-------0-------------0------0----------0---------4------0----------0----0-----2-----------2------------|
D|---------0---0-----------------------0---------4----0h2--------------3--------------0--------0---------|
A|-----------7-----3-------------0h2h3---------5--------------------------------3-----------3------------|
E|-8----------------------3------------------------------------------------------------------------------|



e|---7-------------3------2-------------------------------------------------------------------2-----------|
B|-----8-------------0------0--------------0-----------3--------0-------------0h3-------0-------0---------|
G|-------0-------------0------0----------0---------4------0-------0--------4------0--2------------0-------|
D|---------0---0-----------------------0---------4-----2----2-------0----4--------------0-----------0-----|
A|-----------7-----3-------------0h2h3---------5----------------3------5-------------3----------------2---|
E|-8----------------------3-----------------------------------------------------------------3-----------0-|



e|-----------------------------------------------------------------|
B|---0----3--------------------------------------------------------|
G|---0----4--------------------------------------------------------|
D|---2----2--------------------------------------------------------|
A|---2----3--------------------------------------------------------|
E|-----------------------------------------------------------------|


e|----------0------------------|
B|--------0---0----------------|  Repeat as many times as you need to. Just flow through it back and forth :)
G|------2-------2--------------|
D|----5------------------------|
A|--3--------------------------|
E|-----------------------------|

Just play those two until the middle of the song! enjoy~~~~
(Visited 1 times, 1 visits today)