Where Did You Sleep Last Night Tabs – Hole

 
-------------------------------------------------------------------------------
                  Hole  - Where Did You Sleep Last Night
-------------------------------------------------------------------------------
: Scott
 sharn@fordham.edu

Tuning: EADGBE

Classic folk song famously performed by Leadbelly, and covered by Nirvana. Love and Cobain played the song
together at a Rock Against Rape benefit in Los Angeles in 1993, and Hole performed it often during
their 1991 tours. The chords are basically the same as all other versions, but I adapted it based
on what I hear in the live recordings from several Hole performances. Play with distortion.


e|----------------------------|
B|-----------2-22---3---------|
G|-----------2-22---0---------|
D|-22-22-22--2-22---0---------|
A|-22-22-22--0-00---2---------|
E|-00-00-00---------3---------|

  My girl, my girl, don't lie to me


e|------------------------------|
B|-33---------------------------|
G|-00--4444---00----------------|
D|-00--4444---00--4--2-2----2---|
A|-22--2222---22--4--2-2-2--2---|
E|-33---------33--2--0-0-3b-0---|

  Tell me where did you sleep last night?
  
[Repeat pattern throughout]

  In a patch, in a patch
  Where the sun never shines
  And my body shivered all night
  My girl, my girl don't lie to me
  Tell me where did you sleep last night?

  In a patch, in a patch
  Where the sun never shines
  And my body shivered all night
  
  Her husband was a hardworking man
  Killed a mile and a half from here
  His head was found on a driving wheel
  And his body never was found

  My girl, my girl, don't lie to me
  Tell me where did you sleep last night?
  My girl, my girl, don't lie to me
  Tell me where did you sleep last night?
  In a patch, in a patch
  Where the sun never shines
  And my body shivered all night

  My girl, my girl, where will you go?
  I'm going where the cold wind blows
  To a patch, to a patch
  Where the sun never shines
  And my body shivered all night

  My girl, my girl, don't lie to me
  Tell me where did you sleep last night?
  In a patch, in a patch
  Where the sun never shines
  And my body shivers all night
(Visited 1 times, 1 visits today)

Comments are closed.