-------------------------------------------------------------------------------
                Who I Am Hates Who Ive Been Acoustic - Relient K
-------------------------------------------------------------------------------
: Robert Chen
 robcornerstone

Tuning: Standard

e|-----------4---------------0---------------0-------------------------------|
B|-------------------7-------------------------------7-----------------------|
G|---6-------------------------------8-----------------------8---------------|
D|---------------------------------------------------------------------------|
A|-------0-------0-------0-------0-------------------------------------------|
E|---------------------------------------7-------7-------7-------7-----------|

e|-----------0---------------0-------------------------------0---------------|
B|-----------------------------------7-------9-------------------------------|
G|---8---------------8-------------------------------8-----------------------|
D|---------------------------------------------------------------------------|
A|---------------------------------------------------------------------------|
E|-------9-------9-------9-------9-------0-------0-------0-------0-----------|

e|-----------4---------------0---------------0-------------------------------|
B|-------------------7-------------------------------7-----------------------|
G|---6-------------------------------8-----------------------8---------------|
D|---------------------------------------------------------------------------|
A|-------0-------0-------0-------0-------------------------------------------|
E|---------------------------------------7-------7-------7-------7-----------|

e|-----------0---------------0-----------------------------------------------|
B|-----------------------------------7-------9-------------------------------|
G|---8---------------8---------------8-------9-------------------------------|
D|---------------------------------------------------------------------------|
A|---------------------------------------------------------------------------|
E|-------9-------9-------9-------9-------0-----------------------------------|