Woman Woman Tabs – AWOLNATION

 -------------------------------------------------------------------------------
Woman Woman - AWOLNATION
-------------------------------------------------------------------------------
: That One Random Guy
Fake-email@emailprovider.com
Tuning: DADGBE (Drop D)
If you are having trouble playing this song; it sucks to suck, figure it out. This song isn't that
hard, I would honestly suggest you to just listen to the song a bunch of times. That would work best...
BTW: YOU SHOULD HAVE LISTENED TO THIS SONG BEFORE YOU TRIED TO PLAY IT,
CAUSE WHY THE HELL WOULD YOU WANNA PLAY IT THEN?
///INTRO and pretty much most of the song///
Now Here's your choice, you can make it sound better with this:
e|-------16-18-----------16-18-----------16-18-----------16-14---------------|
B|-14-16-----------14-16-----------14-16--------------14---------------------| DO THIS
G|--------------------------------------------------15-----------------------| THREE TIMES
D|---------------------------------------------------------------------------| THEN DO LAST
A|---------------------------------------------------------------------------| INTRO PART BELOW
D|---------------------------------------------------------------------------|
---OR--- You can make it easier by playing this: (Or you have an acoustic and can't play those notes)
e|-----4-6---------4-6---------4-6---------4-2-------------------------------|
B|-2-4---------2-4---------2-4-----------2-----------------------------------| DO THIS
G|-------------------------------------3-------------------------------------| THREE TIMES
D|---------------------------------------------------------------------------| THEN DO LAST
A|---------------------------------------------------------------------------| INTRO PART BELOW
D|---------------------------------------------------------------------------|
///LAST INTRO PART///
Now once you get near the chorus, you want to play this one note after the intro
Don't matter which one you pick; just make sure to play this one note, it makes playing the Chorus easier.
e|-------16-18-----------16-18-----------16-18-----------16-14---------------|
B|-14-16-----------14-16-----------14-16--------------14---------------8-----| DO THIS
G|--------------------------------------------------15-----------------------| LAST INTRO PART
D|---------------------------------------------------------------------------| BEFORE CHORUS
A|---------------------------------------------------------------------------|
D|---------------------------------------------------------------------------|
---The Other Way---
e|-----4-6---------4-6---------4-6---------4-2-------------------------------|
B|-2-4---------2-4---------2-4-----------2-------------------8---------------| DO THIS
G|-------------------------------------3-------------------------------------| LAST INTRO PART
D|---------------------------------------------------------------------------| BEFORE CHORUS
A|---------------------------------------------------------------------------|
D|---------------------------------------------------------------------------|
///CHORUS///
---I'm too lazy to write it a bunch of times, so I'm gonna make it simple---
!!!ALSO, Make sure to slide you finger to the next chord, it makes it sound cooler!!!
8x = Strum it 8 times            16x = Strum it 16 times             Number(x) = You get the point
8x        8x         8x        8x        8x        8x        16x
e|-x---------x----------x---------x---------x---------x----------x-----------|
B|-x---------x----------x---------x---------x---------x----------x-----------|
G|-x---------x----------x---------x---------x---------x----------x-----------| DO THIS
D|-9---------11---------8---------9---------6---------11---------4-----------|  TWICE
A|-9---------