Word Forward Tab by Foo Fighters

Intro
Rhythm
e||---------------------------------------------------------3----------||
B||-----------------------------------------------------3------3---3---||
G||-------0-------0-------0-------0-------0-------0-------0------0-----||
D||---2-2---2-0-0---0-------------------------0-0---0------------------||
A||-------------------3-3---3-2-2---2-3-3---3--------------------------||
E||---------------------------------------------------3----------------||
e||----------------------------------------------------3---||
B||----------------------------------------------------3---||
G||-------0-------0-------0-------0-------0-------0----0---||
D||---2-2---2-0-0---0-------------------------0-0------0---||
A||-------------------3-3---3-2-2---2-3-3---3-------5--2---||
E||----------------------------------------------------3---||
Lead
e||-----------------------------------------------------------------------------||
B||-----------------------------------------------------------------------------||
G||-----------------------------------------------------------------------------||
D||-----------------------------------------------------------------------------||
A||-----------------------------------------------------------------------------||
E||-----------------------------------------------------------------------------||
e||------------------------------------------------------------------------||
B||------------------------------------------------------------------------||
G||---12-12---12-11-11---11-12-12---12-14-14---14-12-12---12-11-11--11-12--||
D||----x--x----x--x--x----x--x--x----x--x--x----x--x--x----x--x--x---x--x--||
A||---10-10---10--9--9----9-10-10---10-12-12---12-10-10---10--9--9---9-10--||
E||------------------------------------------------------------------------||
Verse 1
Rhythm 2x
e||---3--3--3--3--3--3--3--3--3--3--3--3--3--3--3--3---||
B||---3--3--3--3--3--3--3--3--3--3--3--3--3--3--3--3---||
G||---0--0--2--2--0--0--0--0--0--0--0--0--2--2--2--2---||
D||---0--0--0--0--2--2--2--0--2--2--2--2--3--3--3--3---||
A||---2--2--2--2--2--2--2--2--3--3--3--3---------------||
E||---3--3--------0--0--0--0---------------------------||
Lead
e||-------------------------------------------------||
B||-------------------------------------------------||
G||-------------------------------------------------||
D||-------------------------------------------------||
A||---7---7-5-3---8---0--3--5---2---7---7-5-3---8---||
E||-------------------------------------------------||
verse 2
Lead
e||------------------------------------------------------------||
B||------------------------------------------------------------||
G||---9--11--9/11/12--14--11--11--17--16--14--16--15--14--12---||
D||---x---x--x--x--x---x---x---x---x---x---x---x---x---x---x---||
A||---7---9--7/-9/10--12---9---9--15--14--12--14--13--12--10---||
E||------------------------------------------------------------||
Verse 3
Rhythm
e||-------------------------------------------------------------------------||
B||-------------------------------------------------------------------------||
G||-------------------9-9-9-9-9-9-9-7-5-5-5-5-5-5-5-5-10-10-10-10-----5-5---||
D||---5-5-5-5-9-9-9-9-9-9-9-9-9-9-9-7-5-5-5-5-5-5-5-5-10-10-10-10-7-7-5-5---||
A||---5-5-5-5-9-9-9-9-7-7-7-7-7-7-7-5-3-3-3-3-3-3-3-3--8--8--8--8-7-7-3-3---||
E||---3-3-3-3-7-7-7-7---------------------------------------------5-5-------||
e||-----------------------------------------------------------------------------||
B||-----------------------------------------------------------------------------||
G||---7-7-7-7---------9-9-9-9-9-9-9-7-5-5-5-5-5-5-5-5-10-10-10-10-10-10-10-10---||
D||---7-7-7-7-9-9-9-9-9-9-9-9-9-9-9-7-5-5-5-5-5-5-5-5-10-10-10-10-10-10-10-10---||
A||---5-5-5-5-9-9-9-9-7-7-7-7-7-7-7-5-3-3-3-3-3-3-3-3--8--8--8--8--8--8--8--8---||
E||-----------7-7-7-7-----------------------------------------------------------||
Lead
e||-------------------------------------------------------------------------||
B||-------------------------------------------------------------------------||
G||-------------------9-9-9-9-9-9-9-7-5-5-5-5-5-5-5-5-10-10-10-10-----5-5---||
D||---5-5-5-5-9-9-9-9-9-9-9-9-9-9-9-7-5-5-5-5-5-5-5-5-10-10-10-10-7-7-5-5---||
A||---5-5-5-5-9-9-9-9-7-7-7-7-7-7-7-5-3-3-3-3-3-3-3-3--8--8--8--8-7-7-3-3---||
E||---3-3-3-3-7-7-7-7---------------------------------------------5-5-------||
Chorus 
Rhythm
e||---------------------------------------------------------------------||
B||---------------------------------------------------------------------||
G||---9-9-9-9-7-7-7-7-5-5-5-5-4-4-4-4-5-5-5-5-7-7-7-7-------------------||
D||---9-9-9-9-7-7-7-7-5-5-5-5-4-4-4-4-5-5-5-5-7-7-7-7-5-5-5-5-5-5-5-5---||
A||---7-7-7-7-5-5-5-5-3-3-3-3-2-2-2-2-3-3-3-3-5-5-5-5-5-5-5-5-5-5-5-5---||
E||---------------------------------------------------3-3-3-3-3-3-3-3---||
Lead
e||---4-times--4-times--4-times--4-times--4-times--4-times--8-times---||
B||-------------------------------------------------------------------||
G||---12-------11-------12-------14-------12-------11-------12--------||
D||----x--------x--------x--------x--------x--------x--------x--------||
A||---10--------9-------10-------12-------10--------9-------10--------||
E||-------------------------------------------------------------------||
Bridge                          Bridge 2
Rhythm 2x                       
e||---16-times---16-times---||  then e||---16-times---16-times---||
B||-------------------------||       B||-------------------------||
G||---8---------------------||       G||---4----------3----------||
D||---8----------5----------||       D||---4----------3----------||
A||---6----------5----------||       A||---2----------1----------||
E||--------------3----------||       E||-------------------------||
Bridge
Lead 2x
e||----------------------------------------------------------||
B||----------------------------------------------------------||
G||----------------------------------------------------------||
D||---8-8-8-8-10-10-10-12-12-12-12-14-14-14-14-12-12-12-12---||
A||---x-x-x-x--x--x--x--x--x--x--x--x--x--x--x--x--x--x--x---||
E||---6-6-6-6--8-8-8-8-10-10-10-10-12-12-12-12-10-10-10-10---||
Bridge 2
then
e||---16-times---16-times---||
B||-------------------------||
G||---16---------17---------||
D||----x----------x---------||
A||---14---------13---------||
E||-------------------------||
Chorus 
Rhythm Palm muted
e||---------------------------------------------------------------------||
B||---------------------------------------------------------------------||
G||---------------------------------------------------------------------||
D||---9-9-9-9-7-7-7-7-5-5-5-5-4-4-4-4-5-5-5-5-7-7-7-7-------------------||
A||---7-7-7-7-5-5-5-5-3-3-3-3-2-2-2-2-3-3-3-3-5-5-5-5-5-5-5-5-5-5-5-5---||
E||---------------------------------------------------3-3-3-3-3-3-3-3---||
Lead
e||---------------------------------------------------------------------||
B||---------------------------------------------------------------------||
G||---------------------------------------------------------------------||
D||---9-9-9-9-7-7-7-7-5-5-5-5-4-4-4-4-5-5-5-5-7-7-7-7-------------------||
A||---7-7-7-7-5-5-5-5-3-3-3-3-2-2-2-2-3-3-3-3-5-5-5-5-5-5-5-5-5-5-5-5---||
E||---------------------------------------------------3-3-3-3-3-3-3-3---||
Intro: 2x
Verse: 2x
Verse2: 1x
verse3: 2x
verse4(2): 1x
Chorus: 4x
Bridge1: 2x
Bridge2: 1x
Inrto2: 2x
Muted Chorus: 4x
chorus: 4x
end