Youre The One Lee Tabs – Miracle Legion Vsion 2

 -------------------------------------------------------------------------------
                    You're the One Lee - Miracle Legion
-------------------------------------------------------------------------------
 Me and Mr Ray
: Estuary
Email: lreaper3
Tuning: Standard
[Intro/Chorus]
I would advise using your remaining middle and ring finger to mute the low E string.
Strumming pattern DUD UD UD
    Asus2            A6add9           Asus2            Asus2
e|--0-0-0--0-0--0-0--0-0-0--0-0--0-0--0-0-0--0-0--0-0--0-0-0--0-0--0-0--|
B|--0-0-0--0-0--0-0--0-0-0--0-0--0-0--0-0-0--0-0--0-0--0-0-0--0-0--0-0--|
G|--9-9-9--9-9--9-9--6-6-6--6-6--6-6--4-4-4--4-4--4-4--4-4-4--4-4--4-4--|
D|--7-7-7--7-7--7-7--4-4-4--4-4--4-4--2-2-2--2-2--2-2--2-2-2--2-2--2-2--|
A|--0-0-0--0-0--0-0--0-0-0--0-0--0-0--0-0-0--0-0--0-0--0-0-0--0-0--0-0--|
E|----------------------------------------------------------------------|
[Verse]
e|-----------------------------------|
B|-------2---------0-----------------|
G|-----------------------------------|
D|----2----2---2-----2----2s4-4-2p0--|
A|--0---0----4---4-----4-------------| x4
E|-----------------------------------|
[Bridge]
Palm mute all but let the final note ring on the fourth play.
e|-----------------------------------------------------------------|
B|-----------------------------------------------------------------|
G|-----------------------------------------------------------------|
D|-----------------------------------------------------------------| x4
A|-0-0-0-0-0-0-0-0-4-4-4-4-4-4-4-4-7-7-7-7-7-7-7-7-7-7-7-7-7-7-7-7-|
E|-----------------------------------------------------------------|
There's some faint backing guitar after the second playing of the bridge.
e|--9-9-9-9-9-9-9-9-7-7-7-7-7-7-7-7-5-5-5-5-5-5-5-5-0-0-0-0-0-0-0-0-9-9-9-9-9-9-9-9-7-7-7-7-7-7-7-7-5--|
B|-----------------------------------------------------------------------------------------------------|
G|-----------------------------------------------------------------------------------------------------|
D|-----------------------------------------------------------------------------------------------------|
A|-----------------------------------------------------------------------------------------------------|
E|-----------------------------------------------------------------------------------------------------|
Song structure:
[Intro] x2
[Verse]
[Chorus]
[Verse]
[Chorus] x4
[Bridge]
[Verse]
[Chorus] (Repeat until fade)
************************************
| s   slide
| p   pull off
************************************