Month: August 2013

Vengeance Part 2 Chords – Wooden Wand

 D F#m 
When the drinker of giants is less than his thirst
       G A    
He'll swallow the blessed along with the cursed
 D 
The first will be last
         F#m 
But the last will be worst
     G A D 
And God says "Vengeance is mine"

 D F#m 
In secret, or refuge, the leaders of men
      G A             
Will open their hearts to the pirates, again
 D F#m 
We will recover but, who can say when?
             G A D 
Ah, there's never quite enough time

     G D 
Oh, play your phonograph
    G A 
It still makes baby laugh

 D F#m 
And look to the heavens, and see if he comes
    G A 
To silence and stifle the tentative guns
     D F#m      
And I will see all of my friends all at once
       G A D 
And I know I have nothing to hide

 D F#m 
In time, the new relics will go where they've been
     G A 
And seek out a crevice to perish within
     D F#m 
And everywhere you can smell poison and skin
      G A D 
For, we will have thrown all the lines

     G D 
Oh, play your phonograph
    G A 
It splits the snakes in half

 D F#m 
The place full the purpose of you and your friends
     G A 
The load-bearing walls will begin to make sense
             D F#m 
And they'll dole our prescriptions as Death recommends
            G A D       
Oh, you'll hardly be fit to decide

 D F#m                 
And every lone voice will equate with each verse
   G A      
A hope for a kind and compassionate nurse

So,
 D 
The first will be last 
         F#m 
But the last will be worst
     G A D F#m 
And God says "Vengeance is mine"
     G A D 
And God says "Vengeance is mine"

Dealers Call intro Tabs by Wellfear

 Dealer's Call 
By Wellfear
http://www.wellfear.com/

Couldn't find any tabs on these songs so I watched the video and figured out the beginning.  
Someone should help make more Wellfear tabs to get this band out there.
They are a Norwegian metal band started in 2008. "They hold the middle 
ground between the catchy hooks and melodies of Bullet For My Valentine 
and the brutal aggression of Slipknot."


This is a quick metal downpicking section similiar to a lot of Metallica's songs.

pm is palm mute for the bass notes
h and p are hammer-ons and pull-offs

       pm    pm         pm    pm         pm    pm         pm    pm
D|-------------------------------------------------------------------------|
A|-------------------------------------------------------------------------|
F|-------------------------------------------------------------------------|
C|-5p2---5p2---5p2--4p2---4p2---4p2--5p2---5p2---5p2--4p2---4p2---4p2------|
G|-----2-----2----------2-----2----------2-----2----------2-----2----------|
D|-------------------------------------------------------------------------|

       pm    pm         pm    pm         pm    pm        
D|-------------------------------------------------------------------------|
A|-------------------------------------------------------------------------|
F|-------------------------------------------------------------------------|
C|-4p0---4p0---4p0--5p0---5p0---5p0--4p0---4p0---4p0--5h7p5p0-4h5p4p0------|
G|-----0-----0----------0-----0----------0-----0---------------------------|
D|-------------------------------------------------------------------------|

The rhythm guitar for the intro is just the power chords for the 2nd 
and open frets of the G string (or A string in standard)

If anyone needs to ask me any questions, you can email me at medeivalman98@gmail.com

You And Me Chords – Wayne Brady

 http://www.waynebrady.com/

Intro:  G Am Em  (x2)

Verse 1: 
 G Am Em 
The lawyer's talkin', I can't hear
 G Am Em 
Thinkin' back when did we go wrong?
 G Am Em 
Can't make the past just disappear
 G Am Em 
We've got this baby, let's be strong


Pre-Chorus: 
 F Em 
And I know we'll move on with our lives
 Eb D 
But I know that we'll be just fine


Chorus: 
                          Am 
Cause she's got your eyes
               D/F# 
And that crooked smile of mine
               G C 
So there'll always be you and I
                          Am 
And though things have changed
               D/F# 
One thing remains the same
               G C 
We'll still be a family
         Am D G 
Even if there's no you and me


 G Am Em  (x2)


Verse 2:
 G Am Em 
And baby's askin' everyday
 G Am Em 
Daddy, when you gonna come home?
 G Am Em 
And it breaks my heart to say
 G Am Em 
Mom and dad is movin' on


Pre-Chorus:
 F Em 
But she'll know we're both in her life
 Eb D 
And our family will be just fine


Chorus: 
                          Am 
Cause she's got your eyes
               D/F# 
And that crooked smile of mine
               G C 
So there'll always be you and I
                          Am 
And though things have changed
               D/F# 
One thing remains the same
               G C 
We'll still be a family
         Am D             
Even if there's no you and me


Bridge: 
 Em Eb 
Till death do us part, that was the vow
 D A/C# 
Oh, but look at us now
 Am 
Whatever may come
 D 
Just look what we've done



Chorus: 
                          Am 
Cause she's got your eyes
               D/F# 
And that crooked smile of mine
               G C 
So there'll always be you and I
                          Am 
And though things have changed
               D/F# 
One thing remains the same
               G C 
We'll still be a family
         Am D G 
Even if there's no you and me


 G Am Em  (Repeat until end)

Deep In Love Chords – Tom Boxer

 These are the song's chords, just cycle through.

Actual chords:
 A#m F# C# G# 

Playing with the capo on the 1st fret:
 Am F C G 

==Lyrics:

You would make me fall into love
Deep in love, far away
You would make me fall into love
Deep in love, far away

There's nothing in the world,
that can take me from my girl
I got her heart screaming
Woho

I could be falling for last
But that ain't good enough
Baby I'm falling for love
I'm falling in love

Let's go!

Morena, talk to me..

I'm from Venus, you're from Mars
When together we create stars
Falling down from Earth x2
Woho

I'm from Venus, you're from Mars
When together we create stars
Falling down from Earth x2
Woho

Glasshouse Chords – The Sam Willows

 Artist: The Sam Willows
Title: Glasshouse
Album: The Sam Willows EP
Website: TheSamWillows.com
Tabbed By: Chew Hong Xi


Intro:  E D A E 
Two full years and

a spread of fears

I get down on my

knees, eat my fears
     D A  
And fall away
 E 
Eat my body and drink

my cup

Let the wine of the

galaxies fill you up
     D A      
And fall away

 E ,  Bm ,  A E 
Come to the floor with

my coat of shame

Let the mind of the

mystery spell my name

 D E A 
Oh come to me

 E 
Sword and shield all set

to fly

All quivers are full all

ready to die
      Bm E A 
And all for you

 E ,  B ,  Bm ,  A ,  E B Bm 
Say you love me yeah
 D A E 
Say you love me yeah
    B E Bm 
Say you love me yeah
 A E  
Say you love me 
 
 E ,  A E 
Lay down yours and I'll

lay down mine

Tell my mother and

father I’ll miss them all

the time
     Bm A G 
And fall away

 E Bm A E Bm 
Say you love me yeah
 A E 
Say you love me yeah
                 Bm 
Say you love me yeah
 A E 
Say you love me 
 
    B E D 
Say you love me yeah
 A E 
Say you love me yeah
 B E Bm D 
Say you love me yeah

 A E 
Say you love me

Why Wont They Talk To Me Tabs by Tame Impala

                       Tame Impala - Why Won't They Talk to Me?
                           from their 2012 album Lonerism

Intro:
The synth makes weird noises using
this note. It's not very important
to the song, but here it is anyway:
e|-10----------------|
B|-------------------|
G|-------------------|
D|-------------------|
A|-------------------|
E|-------------------|


Chords come in:
Synth:
e|-5----5----|
B|-7----5----|
G|-7----5----| x4
D|-7----7----|
A|-5----7----|
E|------5----|


Pre-verse:
"Out of the zone, trying to see, I'm so alone, nothing for me"
Synth:
e|-10---------9----12----|
B|-12--------10----14----|
G|-12--------11----14----|
D|-12--------11----14----|
A|-10---------9----12----|
E|-----------------------|


Verse:
"I guess I'll go home, try to be sane, try to pretend, none of it happened,
Oh, this old tree, lonely old me, whoops-a-daisy, I thought I was happy"
Acoustic guitar:
e|-----------------------------------------------------------------|
B|-3-3-3-3-3-3-3-3-3-3-3-3-3-3-3-3-3-3-3-3-3-3-3-3-2-2-2-2-2-2-2-2-|
G|-4-4-4-4-4-4-4-4-4-4-4-4-4-4-4-4-4-4-4-4-4-4-4-4-2-2-2-2-2-2-2-2-| x2
D|-5-5-5-5-5-5-5-5-5-5-5-5-5-5-5-5-5-5-5-5-5-5-5-5-4-4-4-4-4-4-4-4-|
A|-5-5-5-5-5-5-5-5-5-5-5-5-5-5-5-5-5-5-5-5-5-5-5-5-4-4-4-4-4-4-4-4-|
E|-----------------------------------------------------------------|

Synth - the synth just sustains the chords an octave higher than the acoustic guitar:
e|-10-------------------------------9----|
B|-12------------------------------10----|
G|-12------------------------11----11----| x2
D|-12------------------------11----11----|
A|-10-------------------------9-----9----|
E|---------------------------------------|


Synth melody part:
Synth:
e|-----------------------------------------------------------------|
B|-------------5/8--7--5/7---------------5--/8--/10\7--5/7---------|
G|-4-------/7---------------6--4--/7------------------------6-/7.--|
D|-----------------------------------------------------------------|
A|-----------------------------------------------------------------|
E|-----------------------------------------------------------------|

Acoustic guitar:
e|-----------------------------------------------------------------|
B|-3-3-3-3-3-3-3-3-3-3-3-3-3-3-3-3-3-3-3-3-3-3-3-3-2-2-2-2-2-2-2-2-|
G|-4-4-4-4-4-4-4-4-4-4-4-4-4-4-4-4-4-4-4-4-4-4-4-4-2-2-2-2-2-2-2-2-| x2
D|-5-5-5-5-5-5-5-5-5-5-5-5-5-5-5-5-5-5-5-5-5-5-5-5-4-4-4-4-4-4-4-4-|
A|-5-5-5-5-5-5-5-5-5-5-5-5-5-5-5-5-5-5-5-5-5-5-5-5-4-4-4-4-4-4-4-4-|
E|-----------------------------------------------------------------|

Synth:
e|-10-------------------------------9----|
B|-12------------------------------10----|
G|-12------------------------11----11----| x2
D|-12------------------------11----11----|
A|-10-------------------------9-----9----|
E|---------------------------------------|


Intro chords again:
Synth:
e|-5----5----|
B|-7----5----|
G|-7----5----| x4
D|-7----7----|
A|-5----7----|
E|------5----|


Pre-verse:
"Out of the zone, now that I see, I don't need them and they don't need me"
Synth:
e|-10---------9----12----|
B|-12--------10----14----|
G|-12--------11----14----|
D|-12--------11----14----|
A|-10---------9----12----|
E|-----------------------|


Verse:
"I guess I'll go home, try to be sane, try to pretend, none of it happened,
Destined to be lonely old me, whoops-a-daisy, I thought I was happy"
Acoustic guitar:
e|-----------------------------------------------------------------|
B|-3-3-3-3-3-3-3-3-3-3-3-3-3-3-3-3-3-3-3-3-3-3-3-3-2-2-2-2-2-2-2-2-|
G|-4-4-4-4-4-4-4-4-4-4-4-4-4-4-4-4-4-4-4-4-4-4-4-4-2-2-2-2-2-2-2-2-| x2
D|-5-5-5-5-5-5-5-5-5-5-5-5-5-5-5-5-5-5-5-5-5-5-5-5-4-4-4-4-4-4-4-4-|
A|-5-5-5-5-5-5-5-5-5-5-5-5-5-5-5-5-5-5-5-5-5-5-5-5-4-4-4-4-4-4-4-4-|
E|-----------------------------------------------------------------|

Synth:
e|-10-------------------------------9----|
B|-12------------------------------

Suns Coming Up Tabs by Tame Impala

                        Tame Impala - Sun's Coming Up
                       from their 2012 album Lonerism

Intro:
Piano:
e|-------------------------------------------------------------------|
B|----3-3-----2-2-3----1-1-----2-2-----3-3-----2-2-3----1-1-----2-2--|
G|----4-4-----2-2------2-2-----2-2-----4-4-----2-2------2-2-----2-2--|
D|-5-------4--------3-------4-------5-------4--------3-------4-------|
A|-------------------------------------------------------------------|
E|-------------------------------------------------------------------|


1st verse:
"All those things I ever thought would never end,
To think they're now all memories sends me 'round the bend,
To watch her airplane swaying, coming in to land,
There my world is hanging in someone else's hands,
And if I have done something, and you have to let me go,
Think of me as someone, someone that you know"
e|-------------------------------------3-3-----0-0--0--------2---|
B|----3-3-----2-2-3----1-1-----2-2-----5-5-----1-1-----1-----2---|
G|----4-4-----2-2------2-2-----2-2--5-------2-------------0--2---| x3
D|-5-------4--------3-------4--------------------------------X---|
A|-----------------------------------------------------------0---|
E|---------------------------------------------------------------|


"But if I don't hear something pretty soon from now,
I'll disconnect completely, see how that works out"
e|-------------------------------------3-3-----0-0--------------------|
B|----3-3-----2-2-3----1-1-----2-2-----5-5-----1-1--------------5-5---|
G|----4-4-----2-2------2-2-----2-2--5-------2----------5--4-----3-3---|
D|-5-------4--------3-------4-----------------------5--5--5-----5-5---|
A|-----------------------------------------------------------3--------|
E|--------------------------------------------------------------------|


e|----3-3-----0-0-----0-0--3---|
B|----5-5-----1-1-----1-1--5---|
G|-5-------2-------0-------3---|
D|-------------------------5---|
A|-------------------------3---|
E|-----------------------------|


2nd verse:
"I wasn't daring, not much a chancer,
Oh, my darling, why won't you answer?
7 a.m., midnight in Dover,
Sun's coming up now, I guess it's over"
e|----------------------------------------------------------------|
B|---3-3-----3-3-----3-3-----3-3-----1-1-----1-1-----3-3-----3-3--|
G|---3-3-----3-3-----3-3-----3-3-----2-2-----2-2-----3-3-----3-3--|   \
D|---5-5-----5-5-----5-5-----5-5-----3-3-----3-3-----5-5-----5-5--|    \
A|--------0-------6-------6---------------------------------------|     \
E|-3------------------------------1-------1-------3-------3-------|      |
                                                                         | x2
e|---------------------------------------------------------3--------|    |
B|---3-3-----3-3-----4-4-----4-4-----1-1-----1-1-----3--3-----3-----|   /
G|---3-3-----3-3-----5-5-----5-5-----2-2-----2-2-----3-----------3--|  /
D|---5-5-----5-5-----5-5-----5-5-----3-3-----3-3-----5--------------| /
A|--------0-------3-------3-----------------------------------------|
E|-3------------------------------1-------1-------3-----------------|


"Playing his guitar while he's dying of cancer,
Oh, my father, why won't you answer?"
e|----------------------------------------------------------------|
B|---3-3-----3-3-----3-3-----3-3-----1-1-----1-1-----3-3-----3-3--|
G|---3-3-----3-3-----3-3-----3-3-----2-2-----2-2-----3-3-----3-3--|
D|---5-5-----5-5-----5-5-----5-5-----3-3-----3-3-----5-5-----5-5--|
A|--------0-------6-------5---------------------------------------|
E|-3------------------------------1-------1-------3-------3-------|

e|---------------------------------------------------------3--------|
B|---3-3-----3-3-----4-4-----4-4-----1-1-----1-1-----3--3-----3-----|
G|---3-3-----3-3-----5-5-----5-5-----2-2-----2-2-----3-----------3--|
D|---5-5-----5-5-----5-5-----5-5-----3-3-----3-3-----5--------------|
A|--------0-------

She Just Wont Believe Me Tabs by Tame Impala

                    Tame Impala - She Just Won't Believe Me
                       from their 2012 album Lonerism

Intro:
Synth - the synth just sustains the chords for
a long time, so add your own strumming in:
e|-3--------1--------------3----------------|
B|-5--------1--------------5----------------|
G|-5--------2--------------3----------------|
D|-5--------3--------------5----------------|
A|-3--------3--------------3----------------|
E|----------1-------------------------------|


Verse:
"But she just won't believe me, she just won't believe me,
I never appear deceiving, but she just won't believe me"
Synth:
e|-5--------3--------5--------3--------|
B|-6--------5--------6--------5--------|
G|-7--------5--------7--------5--------| x2
D|-7--------5--------7--------5--------|
A|-5--------3--------5--------3--------|
E|-------------------------------------|

This guitar comes in on the word "deceiving" and strums the chords:
e|-3-3-3-3-3-3-3-3-5-5-5-5-5-5-5-5-3-3-3-3-3-3-3-3-|
B|-5-5-5-5-5-5-5-5-6-6-6-6-6-6-6-6-5-5-5-5-5-5-5-5-|
G|-5-5-5-5-5-5-5-5-7-7-7-7-7-7-7-7-5-5-5-5-5-5-5-5-|
D|-5-5-5-5-5-5-5-5-7-7-7-7-7-7-7-7-5-5-5-5-5-5-5-5-|
A|-3-3-3-3-3-3-3-3-5-5-5-5-5-5-5-5-3-3-3-3-3-3-3-3-|
E|-------------------------------------------------|

And then this guitar comes in on the word "she" after the other guitar
starts strumming the chords, and solos until the song abruptly ends:
e|-------------------------------------------------------------------|
B|-------------------------------------------------------------------|
G|--------------------10-12-12b14r12p10----10-12-12b14r12p10----10---|
D|-------10-12--10h12-------------------12-------------------12------|
A|-10h12-------------------------------------------------------------|
E|-------------------------------------------------------------------|

e|-13b15--13-10-------------------------------------------------------|
B|--------------13-10-13b15-r13-10----10------------------------------|
G|---------------------------------12------12-10----------------------|
D|-----------------------------------------------12-12----------------|
A|------------------------------------------------------12-12---------|
E|-------------------------------------------------------------10-10--|



************************************

| /   slide up
| \   slide down
| h   hammer-on
| p   pull-off
| ~   vibrato
| +   harmonic
| x   Mute note
| .   staccato
| b   Bend
| pb  Pre-bend
| br  Bend release
| pbr Pre-bend release
| brb Bend release bend

************************************

Nothing That Has Happened So Far Has Been Anything We Could Control Tabs by Tame Impala V2

                  Tame Impala - Nothing That Has Happened So
                   Far Has Been Anything We Could Control
                       from their 2012 album Lonerism

I just want to say that Kevin Parker is a total genius, and that jam in the middle is
my favourite bit of music of all-time; I'm not even exaggerating.

Intro:
Synth:
e|-4----4----1----1----6----4----1----1----4----4----1----1----6----4----------------|
B|-4----6----1----3----8----6----1----3----4----6----1----3----8----6----12----14----|
G|-6----6----1----3----8----6----1----3----6----6----1----3----8----6----11----13----|
D|-6----6----3----3----8----6----3----3----6----6----3----3----8----6-----9----11----|
A|-6----4----3----1----6----4----3----1----6----4----3----1----6----4-----9----11----|
E|-4---------1-------------------1---------4---------1-------------------------------|


Pre-verse:
Guitar:
e|-8-------8-------8-------8----|
B|--8-------8-------8------8----|
G|---8-------8-------8-----8----|
D|----6-------6-------6----6----|
A|------------------------------|
E|------------------------------|

Synth:
e|-8--8--8--8--8--8--8--8--|
B|-8--8--8--8--8--8--8--8--|
G|-8--8--8--8--8--8--8--8--|
D|-6--6--6--6--6--6--6--6--|
A|-------------------------|
E|-------------------------|


Verse:
"Nothing that has happened so far has been anything we could control,
I have just been waiting for the perfect time to tell you I don't know,
Maybe I'm just reading into it a little deeper than I should,
We would make it easy, we would take it slowly if only we could"
Guitar:
e|-4----4----1----1----6----4----1----1----|
B|-4----6----1----3----8----6----1----3----|
G|-6----6----1----3----8----6----1----3----| x4
D|-6----6----3----3----8----6----3----3----|
A|-6----4----3----1----6----4----3----1----|
E|-4---------1-------------------1---------|


Hit this chord:
Guitar:
e|-8----------6--|
B|--8------------|
G|---8--------8--|
D|----6----6-----|
A|---------------|
E|---------------|

Synth:
e|-8--------|
B|-8--------|
G|-8--------|
D|-6--------|
A|----------|
E|----------|


Dialogue:
"Hey, what are you doing out here? You're thinking about everything, aren't you?
I know it's crazy, but just don't think of it like that. Nothing has to mean anything.
Come on, let's go back inside."
The instruments are muffled, but they play the verse chord progression again:
Synth:
e|-4----4----1----1----6----4----1----1----|
B|-4----6----1----3----8----6----1----3----|
G|-6----6----1----3----8----6----1----3----| x2
D|-6----6----3----3----8----6----3----3----|
A|-6----4----3----1----6----4----3----1----|
E|-4---------1-------------------1---------|


Verse:
"Elodie, look at me, unless you're trying to hurt me,
Heavy blow, down I go, now I just want to let go"
Guitar:
e|-4----4----1----1----6----4----1----1----|
B|-4----6----1----3----8----6----1----3----|
G|-6----6----1----3----8----6----1----3----| x2
D|-6----6----3----3----8----6----3----3----|
A|-6----4----3----1----6----4----3----1----|
E|-4---------1-------------------1---------|

Synth guitar:
e|-11--13--11----11-13-11-10----10--11----------------------------|
B|--------------------------------------11--14--14--13--11--------|
G|----------------------------------------------------------------| x2
D|----------------------------------------------------------------|
A|----------------------------------------------------------------|
E|----------------------------------------------------------------|


Verse - alternate:
"Is it right? Is it wrong? I don't know,
It's not the cause I'm fighting for anymore, but it sucks to keep on running"
Guitar:
e|-4----4----1----1----6----4----2----1----4--------1----1----6----4----1----1----|
B|-4----6----1----3----8----6----4----4----4--------1----3----8----6----1----3----|
G|-6----6----1----3----8----6----4----4----6--------1----3----8----6----1----3----|
D|-6----6----3----3----8----6----4

Music To Walk Home By Tabs by Tame Impala V3

                      Tame Impala - Music to Walk Home By
                       from their 2012 album Lonerism

Intro:
The song starts off with some crazy synth sound effects and then goes into...


Chorus:
"But that's only when I think of you,
Some vision that I hold on to,
You know it's everything I do,
You know it's everything I do"
Synth:
e|-10-------8----------10-------8----------10-------8----------10------12----------|
B|-10-------8----------10-------8----------10-------8----------10------12----------|
G|-11-------9----------11-------9----------11-------9----------11------12----------|
D|-12------10----------12------10----------12------10----------12------10----------|
A|-12------10----------12------10----------12------10----------12------------------|
E|-10-------8----------10-------8----------10-------8----------10------------------|


Synth solo:
Synth:
e|------------------------------------------------------------------|
B|-7---8-5---------7---8-5----/13--\12--10--8-------7--8\5------/7--|
G|--------------7------------------------------7--------------------|
D|------------------------------------------------------------------|
A|------------------------------------------------------------------|
E|------------------------------------------------------------------|

Guitar:
e|-10--10-10-10--10-10-10.---8--8--8--.---8--8--8--.---8--8--8----|
B|-10--10-10-10--10-10-10.---8--8--8--.---8--8--8--.---8--8--8----|
G|-11--11-11-11--11-11-11.---9--9--9--.---9--9--9--.---9--9--9----| x3
D|-12--12-12-12--12-12-12.--10-10-10--.--10-10-10--.--10-10-10----|
A|-12--12-12-12--12-12-12.--10-10-10--.--10-10-10--.--10-10-10----|
E|-10--10-10-10--10-10-10.---8--8--8--.---8--8--8--.---8--8--8----|

e|-10--10-10-10--10-10-10.--12-12-12--.--12-12-12--.--12-12-12----|
B|-10--10-10-10--10-10-10.--12-12-12--.--12-12-12--.--12-12-12----|
G|-11--11-11-11--11-11-11.--12-12-12--.--12-12-12--.--12-12-12----|
D|-12--12-12-12--12-12-12.--10-10-10--.--10-10-10--.--10-10-10----|
A|-12--12-12-12--12-12-12.----------------------------------------|
E|-10--10-10-10--10-10-10.----------------------------------------|


Verse:
"Can almost stand competing with the others,
Can almost hear the fun that I should be having,
Instead of just dreaming"
Guitar:
e|-5--5-5--5-5-5-.-5--5-5--5-5-5--5--5-5--5-5-5-.-5--.--3--.--3--.--|
B|-7--7-7--7-7-7-.-5--5-5--5-5-5--7--7-7--7-7-7-.-5--.--5--.--3--.--|
G|-6--6-6--6-6-6-.-5--5-5--5-5-5--6--6-6--6-6-6-.-5--.--5--.--4--.--|
D|-7--7-7--7-7-7-.-7--7-7--7-7-7--7--7-7--7-7-7-.-7--.--5--.--5--.--|
A|-5--5-5--5-5-5-.-7--7-7--7-7-7--5--5-5--5-5-5-.-7--.--3--.--5--.--|
E|-----------------5--5-5--5-5-5------------------5--.--------3--.--|

e|-5--5--5-5.--5-5-5-.--5-5-5-.-5-5-5-.--3--3--3-3.-3-.-3--5.--7.---8----|
B|-7--7--7-7.--5-5-5-.--5-5-5-.-5-5-5-.--3--3--3-3.-3-.-3--5.--7.--10----|
G|-7--7--7-7.--5-5-5-.--5-5-5-.-5-5-5-.--4--4--4-4.-4-.-4--5.--7.--10----|
D|-7--7--7-7.--7-7-7-.--7-7-7-.-7-7-7-.--5--5--5-5.-5-.-5--7.--9.--10----|
A|-5--5--5-5.--7-7-7-.--7-7-7-.-7-7-7-.--5--5--5-5.-5-.-5--7.--9.---8----|
E|-------------5-5-5-.--5-5-5-.-5-5-5-.--3--3--3-3.-3-.-3--5.--7.--------|


Chorus:
"But it's only when I think of you,
The mover I could turn into,
There must be something I can do,
There must be something I can do"
e|-10--10-10-10--10-10-10.---8--8--8--.---8--8--8--.---8--8--8----|
B|-10--10-10-10--10-10-10.---8--8--8--.---8--8--8--.---8--8--8----|
G|-11--11-11-11--11-11-11.---9--9--9--.---9--9--9--.---9--9--9----| x3
D|-12--12-12-12--12-12-12.--10-10-10--.--10-10-10--.--10-10-10----|
A|-12--12-12-12--12-12-12.--10-10-10--.--10-10-10--.--10-10-10----|
E|-10--10-10-10--10-10-10.---8--8--8--.---8--8--8--.---8--8--8----|

e|-10--10-10-10--10-10-10.--12-12-12--.--12-12-12--.--12-12-12----|
B|-10--10-10-10--10-10-10.--12-12-12--.--12-12-12--.--12-12-12----|
G|-11--11-11-11--11-11-11.--12-12-12--.--12-12-12--.--12-12-12----|
D|-12--12-12-12--12

Mind Mischief Tabs by Tame Impala V2

                         Tame Impala - Mind Mischief
                       from their 2012 album Lonerism

Intro:
Guitar:
e|--------------------------------------|
B|---------6h7--6.-4.-6.--2-------------|
G|-3--4\---6h8--6.-4.-6.--3h4p3--3------| x4
D|-4--6\-------------------------4------|
A|--------------------------------------|
E|--------------------------------------|


Verse 1:
"Feels like my life is ready to blow,
Me and my love we'll take it slow,
I hope she knows that I'll love her long,
I just don't know where the hell I belong"
Guitar:
e|--------------------------------------|
B|---------6h7--6.-4.-6.--2-------------|
G|-3--4\---6h8--6.-4.-6.--3h4p3--3------| x4
D|-4--6\-------------------------4------|
A|--------------------------------------|
E|--------------------------------------|


Verse 2:
"How optimism lead me astray,
Two hundred things I took the wrong way,
I saw her love gauge running low,
I tried to fill but it overflowed"
Guitar:
e|--------------------------------------|
B|---------6h7--6.-4.-6.--2-------------|
G|-3--4\---6h8--6.-4.-6.--3h4p3--3------| x4
D|-4--6\-------------------------4------|
A|--------------------------------------|
E|--------------------------------------|


Verse 3:
"Feels like my life is ready to blow,
Me and my love we'll take it slow,
I hope she knows that I'll love her long,
I just don't know where the hell I belong, oh no"
Guitar:
e|--------------------------------------|
B|---------6h7--6.-4.-6.--2-------------|
G|-3--4\---6h8--6.-4.-6.--3h4p3--3------| x4
D|-4--6\-------------------------4------|
A|--------------------------------------|
E|--------------------------------------|


Guitar lead:
e|--------------------------------------------|
B|-6h7-7--7--7--6--6--6--4--4--4--4\2--2------|
G|--------------------------------------------| x4
D|--------------------------------------------|
A|--------------------------------------------|
E|--------------------------------------------|

The other guitar keeps the riff going:
e|--------------------------------------|
B|---------6h7--6.-4.-6.--2-------------|
G|-3--4\---6h8--6.-4.-6.--3h4p3--3------| x4
D|-4--6\-------------------------4------|
A|--------------------------------------|
E|--------------------------------------|


Chorus:
"She remembers my name, could be blown way out"
Guitar plays a heavier version of the main riff:
e|-----------------------------------------------------------------------------------|
B|-----------------------------------------------------------------------------------|
G|---------6/8--6--------------------------------------------------------------------|
D|-4--6\-----------6---4-4-4-4-4------4-----4--6\------------------------------4-----|
A|--------------------------------4h6---4h6---------4/6--4-----------------4h6---4h6-|
E|----------------------------------------------------------4---2-2-2-2-2------------|


"It's all going to change, she remembers my name"
e|-----------------------------------------------------------------------------|
B|-----------------------------------------------------------------------------|
G|---------6/8--6--------------------------------------------------------------|
D|-4--6\-----------6---4-4-4-4-4------4-----4--6\------------------------------|
A|--------------------------------4h6---4h6---------4/6--4---------------------|
E|----------------------------------------------------------4---2-2-2-2-2------|


Verse variation:
"But she was only messing around,
Please, no more playing with my heart"
Guitar:
e|--------------------------------------|
B|---------6h7--6.-4.-6.--2-------------|
G|-3--4\---6h8--6.-4.-6.--3h4p3--3------| x4
D|-4--6\-------------------------4------|
A|--------------------------------------|
E|--------------------------------------|

Synth plays these chords:
e|-11--11-11--11--11---9---9--9---9---9--11--11-11--11--11---9---9--9-------

Lonerism album Tabs by Tame Impala

                              Lonerism by Tame Impala
                    Released in 2012, written by Kevin Parker

Here it is, the mindblowing latest album by my favourite band of all-time. All of these
tabs are my own work, and have been thoroughly checked for accuracy and completeness.
Every single sound on the album made by the guitars and synths (not including the crazy
synth noises which are completely untabble) is here. I made sure to include everything you
hear on the album in this tab.

I hope you enjoy playing the songs and be sure to support Tame Impala in any way
possible. They more than deserve it!

Tracklist:
01. Be Above It
02. Endors Toi
03. Apocalypse Dreams
04. Mind Mischief
05. Music to Walk Home By
06. Why Won't They Talk to Me?
07. Feels Like We Only Go Backwards
08. Keep on Lying
09. Elephant
10. She Just Won't Believe Me
11. Nothing That Has Happened So Far Has Been Anything We Could Control
12. Sun's Coming Up

To quickly find a song you are looking for, just press 'Ctrl F' and type the name of
the song. Now without further ado...


--------------------------------------------------------------------------------------
                                       Track 01
                                      Be Above It
--------------------------------------------------------------------------------------

Intro:
"Gotta be above it, gotta be above it, gotta be above it, gotta be above it..."
This is the note that the synth plays after the drums and vocals come in.
I've tried to indicate the rhythm with the spacing, because it's kind of strange:
e|---------------------------------------------------------------------|
B|---------------------------------------------------------------------|
G|---------------------------------------------------------------------|
D|---------------------------------------------------------------------|
A|-10----------------10----10----10--------10--------10----------------|
E|---------------------------------------------------------------------|


1st verse:
"And I know that I gotta be above it now,
And I know that I can't let them bring me down,
And I gotta bide my time as a face in the crowd,
And I know that I gotta be above it now"
Since there's hardly anything else going on during the verse, here's how to play
the vocal melody on guitar:
e|-----------------------------------------------|
B|-----------------------------------------------|
G|-------12--11-11-9-9-11-11-9-------------------| x3
D|-12-14-----------------------12.--12--\10\9----|
A|-----------------------------------------------|
E|-----------------------------------------------|

e|----------------------------------------|
B|----------------------------------------|
G|-------12--11-11-9-9-11-11-9------------|
D|-12-14-----------------------12.--12----|
A|----------------------------------------|
E|----------------------------------------|

The synth keeps that note
going after each line is sung:
e|-------------------|
B|-------------------|
G|-------------------| x3
D|-------------------|
A|-10----------------|
E|-------------------|

And the hit this chord after
the last line of the verse is sung:
e|-10--------------------------------|
B|-12--------------------------------|
G|-12--------------------------------|
D|-12--------------------------------|
A|-10--------------------------------|
E|-----------------------------------|


2nd verse:
"And I know that I gotta be above it now,
And I gotta bide my time as a face in the crowd,
And I know that I gotta be above it now,
And I can't let them all just bring me down"
e|-10----10----10----10----10----------------|
B|-12----12----12----12----12----------------|
G|-12----11----12----11----12----------------| x3
D|-12----12----12----12----12----------------|
A|-10----10----10----10----10----------------|
E|-------------------------------------------|


3rd verse - v

Keep On Lying Tabs by Tame Impala V2

                         Tame Impala - Keep on Lying
                       from their 2012 album Lonerism

Verses:
"All I give are little clues,
Maybe one day I'll get through,
There is nothing I can do,
I'll just keep on lying to you,
I only need to say it's true,
Your poor little heart already knew,
But there is nothing you can do,
I'll just keep on lying to you,
Should my cover ever blow,
Would you ever let it go?
There is something you should know,
But hell if I'd ever let it show,
So here I am trying to be strong,
It was noon, now my shadow's long,
I guess I'll go and tell you just as soon as I
Get to the end of this song"
Synth:
e|-1.--1.--1.--1.--1.--1.--1.--1.--1.--1.--1.--1.--1.--1.--1.--1.--|
B|-1.--1.--1.--1.--3.--3.--3.--3.--1.--1.--1.--1.--3.--3.--3.--3.--|
G|-1.--1.--1.--1.--3.--3.--3.--3.--1.--1.--1.--1.--3.--3.--3.--3.--| \
D|-3.--3.--3.--3.--3.--3.--3.--3.--3.--3.--3.--3.--3.--3.--3.--3.--|  \
A|-3.--3.--3.--3.--1.--1.--1.--1.--3.--3.--3.--3.--1.--1.--1.--1.--|   \
E|-1.--1.--1.--1.------------------1.--1.--1.--1.------------------|    |
                                                                        |
e|-1.--1.--1.--1.--3.--3.--3.--3.--1.--1.--1.--1.--1.--1.--3.--3.--|    |
B|-1.--1.--1.--1.--3.--3.--3.--3.--3.--3.--3.--3.--3.--3.--4.--4.--|    |
G|-1.--1.--1.--1.--3.--3.--3.--3.--3.--3.--3.--3.--3.--3.--5.--5.--|    |
D|-3.--3.--3.--3.--5.--5.--5.--5.--3.--3.--3.--3.--3.--3.--5.--5.--|    |
A|-3.--3.--3.--3.--5.--5.--5.--5.--1.--1.--1.--1.--1.--1.--3.--3.--|    |
E|-1.--1.--1.--1.--3.--3.--3.--3.----------------------------------|    |
                                                                        | x2
e|-1.--1.--1.--1.--1.--1.--1.--1.--1.--1.--1.--1.--1.--1.--1.--1.--|    |
B|-1.--1.--1.--1.--3.--3.--3.--3.--1.--1.--1.--1.--3.--3.--3.--3.--|    |
G|-1.--1.--1.--1.--3.--3.--3.--3.--1.--1.--1.--1.--3.--3.--3.--3.--|    |
D|-3.--3.--3.--3.--3.--3.--3.--3.--3.--3.--3.--3.--3.--3.--3.--3.--|    |
A|-3.--3.--3.--3.--1.--1.--1.--1.--3.--3.--3.--3.--1.--1.--1.--1.--|    |
E|-1.--1.--1.--1.------------------1.--1.--1.--1.------------------|    |
                                                                        |
e|-1.--1.--1.--1.--3.--3.--3.--3.--4.--4.--4.--4.--1.--1.--3.--3.--|   /
B|-1.--1.--1.--1.--3.--3.--3.--3.--4.--4.--4.--4.--3.--3.--4.--4.--|  /
G|-1.--1.--1.--1.--3.--3.--3.--3.--5.--5.--5.--5.--3.--3.--5.--5.--| /
D|-3.--3.--3.--3.--5.--5.--5.--5.--6.--6.--6.--6.--3.--3.--5.--5.--|
A|-3.--3.--3.--3.--5.--5.--5.--5.--6.--6.--6.--6.--1.--1.--3.--3.--|
E|-1.--1.--1.--1.--3.--3.--3.--3.--4.--4.--4.--4.------------------|


Interlude:
"To the end of this song,
To the end of this song,
To the end of this song (the curse has won again),
To the end of this song,
Soon I'll be alone (to the end of this song),
Take all you can,
Please understand,
That it never really was love"
Synth:
e|-4.--4.--4.--4.--1.--1.--3.--3.--|
B|-4.--4.--4.--4.--3.--3.--4.--4.--|
G|-5.--5.--5.--5.--3.--3.--5.--5.--| x11
D|-6.--6.--6.--6.--3.--3.--5.--5.--|
A|-6.--6.--6.--6.--1.--1.--3.--3.--|
E|-4.--4.--4.--4.------------------|


1st guitar solo:
Synth:
e|-1.--1.--1.--1.--1.--1.--1.--1.--1.--1.--1.--1.--1.--1.--1.--1.--|
B|-1.--1.--1.--1.--3.--3.--3.--3.--1.--1.--1.--1.--3.--3.--3.--3.--|
G|-1.--1.--1.--1.--3.--3.--3.--3.--1.--1.--1.--1.--3.--3.--3.--3.--|
D|-3.--3.--3.--3.--3.--3.--3.--3.--3.--3.--3.--3.--3.--3.--3.--3.--|
A|-3.--3.--3.--3.--1.--1.--1.--1.--3.--3.--3.--3.--1.--1.--1.--1.--|
E|-1.--1.--1.--1.------------------1.--1.--1.--1.------------------|

e|-1.--1.--1.--1.--3.--3.--3.--3.--1.--1.--1.--1.--1.--1.--3.--3.--|
B|-1.--1.--1.--1.--3.--3.--3.--3.--3.--3.--3.--3.--3.--3.--4.--4.--|
G|-1.--1.--1.--1.--3.--3.--3.--3.--3.--3.--3.--3.--3.--3.--5.--5.--|
D|-3.--3.--3.--3.--5.--5.--5.--5.--3.--3.--3.--3.--3.--3.--5.--5.--|
A|-3.--3.--3.--3.--5.--5.--5.--5.--1.--1.--1.--1.--1.--1.--3.--3.--|
E|-1.--1.--1.--1.--3.--3.--3.-

Elephant Tabs by Tame Impala V4

                            Tame Impala - Elephant
                       from their 2012 album Lonerism

The main riff actually uses a low D note on the low E string. You have to tune down from
E to D to do that, but I'm tabbing this song in standard for simplicity. If you want to
be exact, then change your tuning to drop D and use the open string. That's how Kevin
plays it, but it isn't 100% essential, especially if you can't be bothered retuning.
You could also just turn it into a D power chord as well to compensate.


Verse 1:
Guitar:
e|-----------------------------------------------|
B|-----------------------------------------------|
G|--------------------------------------10.--10--|
D|--------------------------------------10.--10--|
A|-5--5-5--5-5--5-5--5-5--5-5--5-5--5-5--8.---8--|
E|-----------------------------------------------|


"Well he feels like an elephant shakin' his big grey trunk for the hell of it,
He knows..."
Guitar:
e|----------------------------------------------------------------------------------|
B|----------------------------------------------------------------------------------|
G|-------------------------------------------------------------------------10.--10--|
D|-------------------------------------------------------------------------10.--10--|
A|-5--5-5--5-5--5-5--5-5--5-5--5-5--5-5--5-5--5-5--5-5--5-5--5-5--5-5--5-5--8.---8--|
E|----------------------------------------------------------------------------------|


"...that you're dreaming about being loved by him"
Guitar:
e|------------------------------------|
B|------------------------------------|
G|------------------------------------|
D|-5--5-5--5-5--5-5--5-5--5-5--5-5--5-|
A|-5--5-5--5-5--5-5--5-5--5-5--5-5--5-|
E|-3--3-3--3-3--3-3--3-3--3-3--3-3--3-|


Guitar:
e|---------------------------------------|
B|---------------------------------------|
G|---------------------------------------|
D|---------------------------------------|
A|-5--5-5--5-5--5-5--5-5--5-5--5-5--5-5--|
E|---------------------------------------|


"Too bad your chances are slim"
Guitar:
e|----------------------------------|
B|----------------------------------|
G|-------------------------10.--10--|
D|-7--8--7--6--7--6--5.----10.--10--|
A|-7--8--7--6--7--6--5.-----8.---8--|
E|-5--6--5--4--5--4--3.-------------|


Verse 2:
Guitar:
e|-----------------------------------------------|
B|-----------------------------------------------|
G|--------------------------------------10.--10--|
D|--------------------------------------10.--10--|
A|-5--5-5--5-5--5-5--5-5--5-5--5-5--5-5--8.---8--|
E|-----------------------------------------------|


"And it's not like Mr. Shuck to get shy when they ask him who is on top,
There must..."
Guitar:
e|----------------------------------------------------------------------------------|
B|----------------------------------------------------------------------------------|
G|-------------------------------------------------------------------------10.--10--|
D|-------------------------------------------------------------------------10.--10--|
A|-5--5-5--5-5--5-5--5-5--5-5--5-5--5-5--5-5--5-5--5-5--5-5--5-5--5-5--5-5--8.---8--|
E|----------------------------------------------------------------------------------|


"...be something deep down in the dark down there"
Guitar:
e|------------------------------------|
B|------------------------------------|
G|------------------------------------|
D|-5--5-5--5-5--5-5--5-5--5-5--5-5--5-|
A|-5--5-5--5-5--5-5--5-5--5-5--5-5--5-|
E|-3--3-3--3-3--3-3--3-3--3-3--3-3--3-|


Guitar:
e|---------------------------------------|
B|---------------------------------------|
G|---------------------------------------|
D|---------------------------------------|
A|-5--5-5--5-5--5-5--5-5--5-5--5-5--5-5--|
E|---------------------------------------|


"He's not too easily scared"
Guitar:
e|----------------------------------

Apocalypse Dreams Tabs by Tame Impala V3

                        Tame Impala - Apocalypse Dreams
                       from their 2012 album Lonerism

Intro:
Piano - the piano just hits these chords once
each, but you can add in a strumming pattern
that follows the rhythm that the bass plays:
e|-3------0--1------0---------4--|
B|-3------0--3------1--4------4--|
G|-4------0--3------2--3------5--|
D|-5------2--3------2--5------6--|
A|-5------2--1------0--6------6--|
E|-3------0-------------------4--|


Verse 1:
"This could be the day that we push through, it could be the day that all our dreams come true,
For me and you, 'til we're at the end of just another day"
Piano:
e|-3------0--1------0---------4--|
B|-3------0--3------1--4------4--|
G|-4------0--3------2--3------5--| x2
D|-5------2--3------2--5------6--|
A|-5------2--1------0--6------6--|
E|-3------0-------------------4--|

Keyboard comes in on the second repeat of the progression, on the word "true":
e|---------------------------------1-1-1-1-1-1-1-1-1-1-1-1-|
B|-3-3-3-3-3-3-3-3-3-3-3-3-0-0-0-0-3-3-3-3-3-3-3-3-3-3-3-3-|
G|-4-4-4-4-4-4-4-4-4-4-4-4-0-0-0-0-3-3-3-3-3-3-3-3-3-3-3-3-|
D|-5-5-5-5-5-5-5-5-5-5-5-5-2-2-2-2-------------------------|
A|---------------------------------------------------------|
E|---------------------------------------------------------|

e|-0-0-0-0---------------------------------|
B|-1-1-1-1-4-4-4-4-4-4-4-4-4-4-4-4-4-4-4-4-|
G|-2-2-2-2-3-3-3-3-3-3-3-3-3-3-3-3-5-5-5-5-|
D|---------5-5-5-5-5-5-5-5-5-5-5-5-6-6-6-6-|
A|-----------------------------------------|
E|-----------------------------------------|


Interlude - instrumental:
Piano:
e|-2--------6--------2--------6----1----|
B|-2--------8--------2--------8----1----|
G|-3--------8--------3--------8----2----|
D|-4--------8--------4--------8----3----|
A|-4--------6--------4--------6----3----|
E|-2-----------------2-------------1----|

Synth:
e|-6--------6--------6--------6----1----|
B|-6--------8--6--4--6--------8----1----|
G|-6--------8--------6--------8----2----|
D|-4--------8--------4--------8----3----|
A|----------6-----------------6----3----|
E|---------------------------------1----|


Verse 2:
"Are you too terrified to try your best? Just to end up with an educated guess,
Like success, like those times you wake up mystified"
Piano and synth:
e|-3------0--1------0---------4--|
B|-3------0--3------1--4------4--|
G|-4------0--3------2--3------5--| x2
D|-5------2--3------2--5------6--|
A|-5------2--1------0--6------6--|
E|-3------0-------------------4--|

Keyboard:
e|---------------------------------1-1-1-1-1-1-1-1-1-1-1-1-|
B|-3-3-3-3-3-3-3-3-3-3-3-3-0-0-0-0-3-3-3-3-3-3-3-3-3-3-3-3-|
G|-4-4-4-4-4-4-4-4-4-4-4-4-0-0-0-0-3-3-3-3-3-3-3-3-3-3-3-3-|
D|-5-5-5-5-5-5-5-5-5-5-5-5-2-2-2-2-------------------------|
A|---------------------------------------------------------|
E|---------------------------------------------------------|

e|-0-0-0-0---------------------------------|
B|-1-1-1-1-4-4-4-4-4-4-4-4-4-4-4-4-4-4-4-4-|
G|-2-2-2-2-3-3-3-3-3-3-3-3-3-3-3-3-5-5-5-5-|
D|---------5-5-5-5-5-5-5-5-5-5-5-5-6-6-6-6-|
A|-----------------------------------------|
E|-----------------------------------------|

e|---------------------------------1-1-1-1-1-1-1-1-1-1-1-1-0-0-0-0-|
B|-3-3-3-3-3-3-3-3-3-3-3-3-0-0-0-0-3-3-3-3-3-3-3-3-3-3-3-3-1-1-1-1-|
G|-4-4-4-4-4-4-4-4-4-4-4-4-0-0-0-0-3-3-3-3-3-3-3-3-3-3-3-3-2-2-2-2-|
D|-5-5-5-5-5-5-5-5-5-5-5-5-2-2-2-2---------------------------------|
A|-----------------------------------------------------------------|
E|-----------------------------------------------------------------|


Verse 3:
"Oh, it feels so real in my sleep, never held something so close I couldn't keep,
Into the day, the strangest feeling, do you really live without the fear?"
Piano and synth:
e|-3------0--1------0---------4--|
B|-3------0--3------1--4------4--|
G|-4------0--3------2--3------5--| x2
D|-5------2--3------2--5------6--|
A|-5------2

Influence Of A Drowsy God Tabs by Stone Sour

 "Influence of a Drowsy God," -Stone Sour
-tabbed by BrianStanek25

Note: If you are looking for the solo, it will be listed at the very end.
Everything else is the rhythm.

Tuning: D#G#C#F#A#D#
------------------------|
         -KEY-          |
   -----------------    |
^   bend                |
h   hammer-on           |
p   pull-off            |
~   vibrato             |             REMEMBER TO RATE
   pinch harmonic      |    It helps others choose the best tab
*   natural harmonic    |
c   continuous picking  |
^() bend to             |
/   slide up to         |
\\  slide down          |
^~  bend up then back   |
------------------------|

Intro x4
D|------------------------------|
A|------------------------------|
F|------------------------------|
C|-------12*-------10-------9---|
G|--7*------------------7*------|
D|------------------------------|

Verse 1 (pay careful attention)x2
D|--------------------------------------------------------------------|
A|--------------------------------------------------------------------|
F|--------------------------------------------------------------------|
C|-9--9-------9------9--9-------9------7--7-------7------7--7-------7-|
G|-7--7-------7------7--7-------7------9--9-------9------9--9-------9-|
D|------0-0-0-------------0-0-0-------------0-0-0-------------0-0-0---|

D|--------------------------------------------------------------------|
A|--------------------------------------------------------------------|
F|--------------------------------------------------------------------|
C|-5--5-------5------5--5-------5------7--7-------7------7--7-------7-|
G|-7--7-------7------7--7-------7------9--9-------9------9--9-------9-|
D|------0-0-0-------------0-0-0-------------0-0-0-------------0-0-0---|

(he does something but the audio is too jumbled to tell, so I just do this)
D|-------------------------|
A|-------------------------|
F|-------------------------|
C|-2-----------------------|
G|---5-3-5-3-2-3-2---2-----|
D|-----------------5---5-3-|

Chorus (just held notes)
D|-----------------------------------------------------------------|
A|-----------------------------------------------------------------|
F|-4------2--------------------4------2---------------------4------|
C|-4------2------5------3------4------2------5------3---6---4------|
G|-2------0------5------3------2------0------5------3---6---2------|
D|---------------3------1--------------------3------1---4----------|

D|-------------------------------------|
A|-/17---------/17----p15--------------|
F|-------/16---------------16----------|
C|-----------------------------17--14~-|
G|-------------------------------------|
D|-------------------------------------|

Verse 2 (slight difference)x2
D|-----------------------------------------------------------------------|
A|-----------------------------------------------------------------------|
F|-----------------------------------------------------------------------|
C|-9--9-------9-------9--9-------9-------7--7-------7-------7--7-------7-|
G|-7--7-------7-------7--7-------7-------9--9-------9-------9--9-------9-|
D|------0-0-0----0-0-0-----0-0-0----0-0-0-----0-0-0----0-0-0-----0-0-0---|

D|-------------------------------------------------------------------------|
A|-------------------------------------------------------------------------|
F|-------------------------------------------------------------------------|
C|------5--5-------5------5--5-------5------7--7-------7------7--7-------7-|
G|------7--7-------7------7--7-------7------9--9-------9------9--9-------9-|
D|0-0-0------0-0-0---0-0-0-----0-0-0---0-0-0-----0-0-0---0-0-0-----0-0-0---|

(again, not too sure exactly what he does here)
D|-------------------------|
A|-------------------------|
F|-------------------------|
C|-2-----------------------|
G|---5-3-5-3-2-3-2---2-----|
D|-----------------5---5-3-|

Chorus
D|-------------------

Run Enemy Tabs by Shearer

 -------------------------------------------------------------------------------
                             RUN ENEMY - Shearer
-------------------------------------------------------------------------------
http://www.shearer.de/

Tabbed by: Jan Wartenberg

Tuning: Standard

(Intro)
C# F# A# F#

Only bass notes:
e ------------------------------------|
B ------------------------------------|
G ------------------------------------|
D ------------------------------------|
A ---4-4-4-4-4---------1-1-1-1-1------|
E --------------2-2---------------2-2-|

C# F# A# F# (only bass)
i've tasted fruit, forbidden you
i'm lost in love, entwined around you

A                B                    (full power chords)
don't walk into, don't run into
C#              E
wild medicines will fly us through
A          B            F#
run enemy, we're comin' true

C# F# A# F#
being near to you, getting lost in you
i cannot ever get enough of you

A                B             (muted, or only bass note)
don't walk into, don't run into
C#              E
wild medicines will fly us trough
A          B            F#
run enemy, we're comin' true

       A                   B          (full power chords)
and it feels like there is no one left
        C#                    E
when we break into the hidden chest
       A                B
when i left you like a tender bloom
     C#                   E
my heart gets weak and i loose control

A   B   C#

C# F# A# F# (again bass)

C# F# A# F#
the outer space, or just this place
can't capture some, or a hint of your grace

A                B             (palm muted, or only softly hit)
don't walk into, don't run into
C#              E
wild medicines will fly us trough
A          B            F#
run enemy, we're comin' true

       A                   B          (full power chords)
and it feels like there is no one left
        C#                    E
when we break into the hidden chest
       A                B
when i left you like a tender bloom
     C#                   E
my heart gets weak and i loose control

A   B   C#


(interlude)                            (3x)
e -------------------------------------|
B -------------------------------------|
G -------------------------------9---9-|
D ----7---7---9--9----11---11----------|
A -----------------------------7---7---|
E --5---5---7---7---9----9-------------|

alternatively                          (3x)
e ---------------------------------------|
B ---------------------------------------|
G ---------------------------------9---9-|
D ----7---7---9---9-----11----11--9------|
A ---7-------9--------11---------7---7---|
E --5---5---7---7---9------9-------------|

F# C# E B (4x) (full power chords, figure out rhythm)

       A                   B           (muted, or only bass note)
and it feels like there is no one left
        C#                    E
when we break into the hidden chest
       A                B
when i left you like a tender bloom
     C#                   E
my heart gets weak and i loose control

A B C# E
and i feel your flesh and i smell the air
i unbolt my heart to let you share
i am ready to dissolve into you

(last part twice, with full power chords when repeated)

(outro)
A B C# E

Sleep Well Darling Tabs by Secrets

 -------------------------------------------------------------------------------
                             sleep well, darling-secrets
-------------------------------------------------------------------------------
Tabbed by: bassist327
E-mail: bassist327@aol.com

Tuning:standerd

So this Is my first tab ever I think its correct but if you hear anything different feel 
free to tell me I love feed back!
 Its a pretty simple song to play its in standard no capo and its just been a blast 
tabbing this
amazing song from an amazing album from an amazing
band!I hope all of you have fun playing it! and the strumming is pretty simple just 
listen to the song
to find out


  Intro 2x (0:00-0:14)
E |--x-------------------2------2---2----|
B |--3-------------------3------2---3----|
G |--0-------------------2------2---2----|
D |--0-------------------0------0---0----|
A |--2-------------------0------0---0----|
E |--3¬------------------x------x---x----|


     Verse 4x (0:14-0:43)
E |--x-------------------2------2---2--------|
B |--3-------------------3------2---3--------|
G |--0-------------------2------2---2--------|
D |--0-------------------0------0---0--------|
A |--2-------------------0------0---0--------|
E |--3¬------------------x------x---x--------|

      Play intro 2x (0:43-0:57)


  Chorus 2x (0:57-1:26)
E |--x--------------x----------------x---------x---------x------|
B |--3--------------3----------------7---------5---------3------|
G |--0--------------0----------------0---------0---------0------|
D |--0--------------0----------------0---------0---------0------|
A |--2--------------x----------------x---------x---------x------|
E |--3¬-------------5----------------5---------5---------3------|


Intro 2x (1:27-1:42)
Verse 4x (1:42-2:11)
Intro 2x (2:11-2:23)
Chorus 2x (2:23-2:52)

   Electric guitar kicks in


     Chorus (electric guitar) 2x (2:56-3:12)
E |----------------------------------|
B |----------------------------------|
G |7777777766667777------------------|
D |7777777777777777-5555555555555555-|
A |5555555555555555-5555555555555555-|
E |-----------------3333333333333333-|



   End chorus (3:12-3:15)
E |--------------------------|
B |--------------------------|
G |7777777766667777----------|
D |7777777777777777-55555555-|
A |5555555555555555-55555555-|
E |-----------------33333333-|




Ending 2x (3:17-3:45)
E |-------------------------------------------|
B |-------------------------------------------|
G |7777777777777777---------------------------|
D |7777777777777777-5555555555555555-99999999-|
A |5555555555555555-5555555555555555-99999999-|
E |-----------------3333333333333333-77777777-|

E |----------------------------------|
B |----------------------------------|
G |----------------------------------|
D |1212121212121212-5555555555555555-|
A |1212121212121212-5555555555555555-|
E |1010101010101010-3333333333333333-|

END
 hope you enjoyed!


************************************

| /   slide up
| \   slide down
| h   hammer-on
| p   pull-off
| ~   vibrato
| +   harmonic
| x   Mute note
| b   Bend
| pb  Pre-bend
| br  Bend release
| pbr Pre-bend release
| brb Bend release bend

************************************

Through Being Cool Chords – Saves The Day

 Saves The Day
Through Being Cool
Through Being Cool
1999 Vagrant Records
Submitted by: jeremyunderground41@yahoo.com

Key: Bb

Tuning: Standard EADGBe

Chords used:
 Gm  - 355333
 Eb  - x68886
 Bb  - x13331
 F  -  133211
 Cm  - x35543
 Dm  - xx0231


Intro: 1-2-3-4!!!

 Gm -- x4


Verse 1:
 Gm Dm 
  You know what?  The 
 Eb 
next time you see 
 Bb 
Nick yeah Tell him
            Cm 
I'm gonna stick some 
         Eb 
needles in his face 
 Gm 
  And watch him on 
     Dm Eb 
his knees Watch him 
         Bb 
when he sees that 
         Cm Eb 
I'm not fooling yeah


Chorus 1:
 Bb 
  Cause I'm
 Cm 
through being cool 
        Eb 
And he keeps 
telling everyone 
  Bb Eb Bb 
about me 
 Bb Cm 
  Yeah Like how
I'm such a fool and 
 Eb Bb Eb Bb Gm  -x4
that I'm so deceptive


Verse 2:
 Gm 
  I think I'll 
          Dm 
make him eat the 
          Eb 
ground I think that 
        Bb 
I will turn around 
     Cm 
and notice the wind 
         Eb 
blowing tops of trees 
 Gm 
  I'll see the way
     Dm Eb 
the world begins to 
 Bb 
need color everywhere 
          Cm 
And I'll realize how 
  Eb      (Hold)
small I really-


Chorus 2:
  Bb 
-Am Cause I'm
 Cm 
through being cool 
        Eb 
And he keeps 
telling everyone 
  Bb Eb Bb 
about me 
 Bb Cm 
  Yeah Like how
I'm such a fool and 
 Eb Bb Eb 
that I'm so deceptive
 Bb 
  And then I'll spin right
back around And say-


Outro:
   Eb Gm 
-"Nick why are you 
        Bb 
such a prick? yeah
 Eb 
Why don't you just
 Cm F 
marvel in the hopes 
     Eb 
that  make up this 
      Gm Bb 
reality?  Your
 Eb Cm 
world is what you 
 Bb 
made it And
 F Gm (hold)
I don't want a part of it"
 Gm (hold)
shout

Third Engine Chords – Saves The Day

 Saves The Day
Third Engine
Through Being Cool
1999 Vagrant Records
Submitted by: jeremyunderground41@yahoo.com

Key: G

Tuning: Standard EADGBe

Chords used:
 G  -   320033
 D  -   xx0232
 Em  -  022000
 C  -   x32010
 Bm  -  x24432
 G/B  - x20xx0
 Am  -  x02210


Intro:  Em - D - C --,  Em - Bm - C -- x2


Verse 1:
 Em D C 
  The sky grows bigger every
             Em 
day And the other week 
   D C 
I hopped on a train 
                       Em 
Cutting through state lines 
    D C 
To come to you as the 
                Em 
crow flies And out there in 
       D C (Hold)
there offing everything
was melon and-


Chorus 1:
   G 
-orange Did you 
 D 
know my sweet 
 C 
 Yeah That I once took
             G 
the liberty of watching 
 D C 
you in your sleep?


Verse 2:
 Em D C 
  And I just want you to
           Em 
know that every pool
    D C 
of water reminds me
of you Is that all
 Em D 
right? I hope you 
            C 
think it's cool
Yeah sometimes a
 Em D 
train can't go as
 C 
fast as I want it to


Chorus 2:
 G 
  Did you 
 D 
know my sweet 
 C 
 Yeah That I once took
             G 
the liberty of watching 
 D C 
you in your sleep?
I rolled over
         G 
and over Trying 
    D 
to touch your knees
      C 
hell yeah whoa
underneath the sheets 
 G D 
  Trying to
           C--
touch your knees


Bridge:
 Em 
  Everything seemed 
          D 
a little easier when 
    C 
we weren't one hundred 
        Em 
miles apart The person 
  G 
across from me sitting 
        D 
in her train seat 
   C Em 
reminded me of you  And I 
        G D 
looked out past her cheeks 
             C 
through the glass light conduit 
 Em G 
  But the sun had sunk
             D 
Disappeared into New Jersey 
    C 
Oh why don't they have 
 C (hold)
phones on these things?


Interlude: 
Em-D-C--, Em-Bm-C--


Verse 3:
 Em Bm C 
   What can I do?
 Em Bm 
   I can't stop
 C 
thinking about you


Chorus 3:
 G 
  Did you 
 D 
know my sweet 
 C 
 Yeah That I once took
             G 
the liberty of watching 
 D C 
you in your sleep?
I rolled over
         G 
and over Trying 
    D 
to touch your knees
      C 
hell yeah whoa
underneath the sheets 
 G D 
  Trying to
            C C - G/B - Am - G (hold)
touch your knees