Month: August 2013

Stay Close Chords – Fireflight V2

 Stay Close (Live Acoustic Version)
Fireflight
NOW ALBUM

Based on Live Acoustic Version https://www.youtube.com/watch?v=4Hsw-EqBuj8

Capo 1 

INTRO:
  Bm G A F# 

VERSE 1:
 Bm 
I wanna know You
                    G 
There's so much at stake
                A 
Can't face the memories
                     F#m 
They bend me till I break
                 Bm 
Hiding from the past
                    G 
But it's eating me alive
                A F#m 
Can't block it out when it's coming from inside

PRE-CHORUS:
 G A F#m Bm 
Every turn leads me to a new dead end
 G A F#m 
Lost again I'm screaming your name

CHORUS:
      Bm 
Come close, come close
     D 
And call my name
     A Em 
How can you turn your back on me when you know my pain
      Bm 
Stay close, stay close
       D 
Light up the night
 A Em 
Save me from the part of me that's begging to die

INSTRUMENTAL:
  Bm  

VERSE 2:
          Bm 
Precious denial
                     G 
A stone to break my back
              A F#m 
The chains I carry won't cut me any slack
               Bm G 
Imprisoned by fear with no room for my heart
         A 
My only hope
                       F#m 
Only You can heal the scars

PRE-CHORUS:
 G A F#m Bm 
Every turn leads me to a new dead end
 G A F#m 
Lost again I'm screaming your name

CHORUS:
      Bm 
Come close, come close
     D 
And call my name
     A Em 
How can you turn your back on me when you know my pain
      Bm 
Stay close, stay close
       D 
Light up the night
 A Em 
Save me from the part of me that's begging to die

INSTRUMENTAL:
  Bm  

BRIDGE:
 Bm 
Stay by my side
 Bm 
If you leave me I will die
 Bm 
Stay by my side
 Bm 
If you leave me I will die
 Bm D 
Stay by my side
                       A 
If you hold me I will fly
                       Em 
If you hold me I will fly
 Em 
Will you hold me

CHORUS:
 Bm 
Come close come close
 D 
And call my name
     A Em 
How can you turn your back on me when you know my pain
 Bm 
Stay close stay close
       D 
Light up the night
 A Em 
Save me from the part of me that's begging to die

OUTRO:
  Bm

Blizzard Chords – Fauve

 ------------**** FAUVE - BLIZZARD ****------------------

[$] ----> quart de temps
 $ ----> 3 quarts de temps


COUPLETS

Am [G] Am [G] C [F/C] C [Dm]  en accords ouverts

F/C

E -0-
B -1-
G -0-
D -3-
A -3-
E -0-


REFRAIN

e -----------------------|
B -----------------------|
G ----5--5--5---4--------|    Riff1
D ---7--7--7--5----------|
A -----------------------|
E -----------------------|



e ------------------------|
B ------------------------|
G ----9---9---9----10-----|   Riff2
D --10--10--10--12--------|
A ------------------------|
E ------------------------|



COUPLET
Am                        [G] Am
Ooooh qu'est ce que tu fais ?! Arrête !
                                                 [G]
Qu'est ce qu'il t'prend de faire des trucs pareils ?
C                                    [F/C]
 Pourquoi tu t'fais du mal comme ça ?
C                                                                 [Dm]
 Qu'est ce qui va pas ? Parle moi, tu sais que tu peux tout me dire.

Am                               [G]           Am
Mais nan mais c'est des conneries tout ça tu le sais.
                                     [G] C                                    [F/C]
Regarde moi dans les yeux. Regarde moi.   On s'en branle. C'est PAS important.
C
Moi j'te trouve magnifique. Depuis la première fois que j't'ai vu.
[Dm]
D'ailleurs j'm'en suis toujours pas remis.

Am                                   [G]
Et puis comment j'ferai sans toi moi ?
Am
 Et puis comment l'univers il ferait sans toi ?
           [G]              C
Ca pourra jamais fonctionner. C'est impossible.
                     [F/C]         C                                                  [Dm]
Alors faut pas pleurer ! Faut pas pleurer. Parce que ça va aller j'te le promets, ça va aller.

Am                                     [G]           Am
 Parce qu'on est de ceux qui guérissent, de ceux qui résistent, de ceux qui croient aux miracles.
     [G]        C                                                                        
   [F/C]
Pas d'ceux qui disent que si les tables bougent c'est parce que quelqu'un les pousse du pied.
C                                            [Dm]
 Mais un jour tout ça on y pensera même plus.
Am                  [G] Am                           [G]
 On aura tout oublié,   comme si ça avait pas existé.

C [F/C] C [Dm]
Am [G] Am [G] C [F/C] C [Dm]


REFRAIN
Riff1
Tu nous entends le Blizzard ? Tu nous entends ?!
Riff1
Si tu nous entends, va te faire enculer.
Riff2
Tu pensais que t'allais nous avoir hein ?
Riff2
Tu croyais qu'on avait rien vu ? Surprise connard !

Riff1
Tu nous entends la Honte ? Tu nous entends ?!
Riff1
Si tu nous entends fais gaffe quand tu rentres chez toi seule le soir,
Riff2
On pourrait avoir envie de t'refaire la mâchoire avec des objets en métal,
Riff2
Ou d'te laver la tête avec du plomb, qu'est ce que t'en dis ?

Riff1
Tu nous entends la tristesse ? Tu nous entends ?!
Riff1
Si tu nous entends, c'est que toi aussi tu vas bientôt faire ton sac.
Riff2                                                          Riff2
Prendre la première à gauche, deuxième à droite, puis encore à gauche puis aller niquer 
ta race.
Félicitations ! Bravo !

Riff1
Tu nous entends la Mort ? Tu nous entends ?!
Riff1
Si tu nous entends sache que tu nous fais pas peur, tu peux tirer tout ce que tu veux.
Riff2
On avance quand même, tu pourras pas nous arrêter.
Riff2
Et on laissera personne derrière, on laissera personne se faire éliminer.
Am        [G]  Am
 Tout ça c'est fini !

[G] C [F/C] C [Dm]
Am [G] Am [G] C [F/C] C [Dm]

Riff1
Tu nous entends la Dignité ? Tu nous entends ?!
Riff1
Si tu nous entends sache qu'on a un genou à Terre et qu'on est désolé.
RIff2
On est désolé de tout ce qu'on a pu te faire, mais on va changer !
Riff2
On va devenir des gens biens tu verras !Et un jour tu seras fière de nous.

Riff1
Tu nous

Sunshine Enema Tabs by Fatso Jetson

 Sunshine Enema by Fatso Jetson
This song is from the album "Cruel & Delicious".
I've tabbed this the way I play it.
Listen to the song to understand the rhythm and timing of the notes used.
This is played in standard tuning.


e|--------------------------------------------------------|
B|--------------------------------------------------------|
G|----------------------------------------7-7--4-4--------|
D|----------3--------4h5-4-----------3----5-5--4-4--------|
A|------2h3---3-/5-5-------5-----2h3---3--5-5--2-2--------|
E|--1-3----------------------1-3--------------------------|

e|--------------------------------------------------------|
B|--------------------------------------------------------|
G|----------------------------------------7-7--4-4--------|
D|----------3--------4h5-4-----------3----5-5--4-4--------|
A|------2h3---3-/5-5-------5-----2h3---3--5-5--2-2--------|
E|--1-3----------------------1-3--------------------------|

e|--------------------------------------------------------|
B|--------------------------------------------------------|
G|----------------------------------------7-7--4-4--------|
D|----------3--------4h5-4-----------3----5-5--4-4--------|
A|------2h3---3-/5-5-------5-----2h3---3--5-5--2-2--------|
E|--1-3----------------------1-3--------------------------|

e|--------------------------------------------------------|
B|--------------------------------------------------------|
G|----------------------------------------7-7--4-4--------|
D|----------3--------4h5-4-----------3----5-5--4-4--------|
A|------2h3---3-/5-5-------5-----2h3---3--5-5--2-2--------|
E|--1-3----------------------1-3--------------------------|

e|--------------------------------------------------------|
B|--------------------------------------------------------|
G|---------------7-7--4-4----------------7-7--4-4---------|
D|-3----3---3----7-7--4-4--3----3---3----7-7--4-4---------|
A|-3----3---3----5-5--2-2--3----3---3----5-5--2-2---------|
E|-1--0-1-0-1-0------------1--0-1-0-1-0-------------------|

e|--------------------------------------------------------|
B|--------------------------------------------------------|
G|---------------7-7--4-4----------------7-7--4-4---------|
D|-3----3---3----7-7--4-4--3----3---3----7-7--4-4---------|
A|-3----3---3----5-5--2-2--3----3---3----5-5--2-2---------|
E|-1--0-1-0-1-0------------1--0-1-0-1-0-------------------|

e|--------------------------------------------------------|
B|--------------------------------------------------------|
G|---------------7-7--4-4----------------7-7--4-4---------|
D|-3----3---3----7-7--4-4--3----3---3----7-7--4-4---------|
A|-3----3---3----5-5--2-2--3----3---3----5-5--2-2---------|
E|-1--0-1-0-1-0------------1--0-1-0-1-0-------------------|

e|--------------------------------------------------------|
B|--------------------------------------------------------|
G|---------------7-7--4-4----------------7-7--4-4---------|
D|-3----3---3----7-7--4-4--3----3---3----7-7--4-4---------|
A|-3----3---3----5-5--2-2--3----3---3----5-5--2-2---------|
E|-1--0-1-0-1-0------------1--0-1-0-1-0-------------------|


e|--------------------------------------------------------|
B|--------------------------------------------4-----------|
G|--------------------------------------------6b----------|
D|--6--6-6-6-6-6--6--6-6-6-6-6--6--6-6-6-6-6--------------|
A|--6--6-6-6-6-6--6--6-6-6-6-6--6--6-6-6-6-6--------------|
E|--4--4-4-4-4-4--4--4-4-4-4-4--4--4-4-4-4-4--------------|

e|--------------------------------------------------------|
B|--------------------------------------------------------|
G|----------------------------------------7-7--4-4--------|
D|----------3--------4h5-4-----------3----5-5--4-4--------|
A|------2h3---3-/5-5-------5-----2h3---3--5-5--2-2--------|
E|--1-3----------------------1-3--------------------------|

e|--------------------------------------------------------|
B|-------------

Ill Wait Today Tabs by Farside

 -------------------------------------------------------------------------------
                             I'LL WAIT TODAT - Farside
-------------------------------------------------------------------------------
Tabbed by: Paul
E-mail: Paultri3@gmail.com

Tuning: Standard

This is my first tab ever posted. I do know the song pretty good on guitar though.  This
sounds good to me.  I'll try to indicate the rhythm of the chords but... Whatcha get is
whatcha get.  You can figure it out. This sucks. a quarter of the way through I fin a 
damn template to make it a million times easier.>:[]

Intro/chorus

E-0--0-0-0-0-0-0-0-0-0--0--0-0--0-0-0-0-|
B-0--0-0-0-0-0-0-0-0-0--0--0-0--0-0-0-0-|
G-2--2-2-4-2-4s6s4-2-2--7--7-7--7-7-6-4-|  X2
D-2--2-2-4-2-4s6s4-2-2--7--7-7--7-7-6-4-|
A-0--0-0-2-0-2s4s2-0-0--5--5-5--5-5-4-2-|
E---------------------------------------|

E----2---5--5-5--5h7p5|        <the 1="" a----4---7--7-7-------|="" b----2---5--5-5--5h7p5|="" d----4---7--7-7-------|="" e-0="" e-2--2---5--5-5-------|="" five="" g----2---6--6-6-------|="" hammer-on="" is="" on="" only="" pull-off="" second="" seven="" the="" time.="" used="" verse="" x4="" /> <do -2|="" -7="" a="" a-0="" bunch="" that="" then-9--9-x-9----4---7--7-7="" times="" />

Goddamn Tabs by Falling In Reverse

 -------------------------------------------------------------------------------
                             Goddamn-Falling in Reverse
-------------------------------------------------------------------------------

This is the guitar tab for Goddamn by Falling in Reverse. This song is on their new 
album fashionably late, which I really like. This tab is missing the solo, as I am still 
working on it. As soon as I get it done, I will put it up. My youtube is 
http://www.youtube.com/channel/UCfvjnOjnkomKgEFPsI2hwNg/videos

I will soon be putting up a guitar cover of this song.



Intro

D|-----------------|
A|-----------------|
F|-----------------|
C|--9-7--0-5-9-7-0-|
G|--9-7--0-5-9-7---|
C|--9-7--0-5-9-7-0-|
        . .
Verse 1

D|-------------------------------------------------------|
A|--7-----7----------------------------------------------|
F|-----7-----7--9--7--9--7-----7-------------------------|
C|--------------------------9----X3----7-7-7-7-5-5-5-5---|
G|-------------------------------------7-7-7-7-5-5-5-5---|
C|-------------------------------------7-7-7-7-5-5-5-5---|

CHORUS

D|-----------------------------------------------------|
A|-----------------------------------------------------|
F|-----------------------------------------------------|
C|--0--0------0-0----5--5----5--5----9-----7-----5-----|
G|--0--0------0-0----5--5----5--5----9-X4--7-X4--5-----|X8
C|--0--0------0-0----5--5----5--5----9-----7-----5-----|

D|--------------|
A|--------------|
F|--------------|
C|--0--5--9--7--|
G|--0--5--9--7--|
C|--0--5--9--7--|
    .  .

Verse 2

D|------------------------------------------------------|
A|--7-----7---------------------------------------------|
F|-----7-----7--9--7--9--7-----7------------------------|
C|--------------------------9----X3----7-7-7-7-5-5-5-5--|
G|-------------------------------------7-7-7-7-5-5-5-5--|
C|-------------------------------------7-7-7-7-5-5-5-5--|

D|---------------------------------------|
A|---------------------------------------|
F|--------------------------------X3-----|
C|--0--0--0--0--0--5--5--5--5--5------7--|
G|--0--0--0--0--0--5--5--5--5--5------7--|
C|--0--0--0--0--0--5--5--5--5--5------7--|

    .  .  .  .  .  .  .  .  .  .

Chorus 2


D|-----------------------------------------------------|
A|-----------------------------------------------------|
F|-----------------------------------------------------|
C|--0--0------0-0----5--5----5--5----9-----7-----5-----|
G|--0--0------0-0----5--5----5--5----9-X4--7-X4--5-----|X8
C|--0--0------0-0----5--5----5--5----9-----7-----5-----|



Solo(working on it still)

D|-----------------------------------------|
A|--/17--15--14----------------------------|
F|--------------14--------------------14---|
C|------------------16-----------/12-------|
G|----------------------17--12-------------|
C|-----------------------------------------|


E|--------------------------|
B|--------------------------|
G|--------------------------|
D|--9--9-----7--7-----5--5--|
A|--9--9-----7--7-----5--5--|
E|--9--9-----7--7-----5--5--|

*Repeat chorus

D|--------------|
A|--------------|
F|--------------|
C|--0--5--9--7--|
G|--0--5--9--7--|
C|--0--5--9--7--|
    .  .

7 Minutes In Heaven Atavan Halen Chords – Fall Out Boy V2

 Intro:  G#m ,   E ,   B ,   F# ,   G#m ,  E ,   F#   2x

Verse:
        G#m E 
I'm sleeping my way out of this one
           B F# 
With anyone who will lie down
         G#m E 
I'll be stuck fixated on one star
                 B F# 
When the world is crashing down

Prechorus:
  G#m E 
I keep telling myself
  B F# 
I keep telling myself
     G#m E F# 
I'm not the desperate type

(But you've got me looking in through blinds)
  G#m E 
I keep telling myself
  B F# 
I keep telling myself
    G#m E F# 
I'm not the desperate type

Chorus: 2x 
                       B F# E 
I’m sitting out dances on the wall
  G#m F# E F# 
Trying to forget everything that isn't you
             B F# E 
I'm not going home alone
          G#m F# E F# 
Cause I don't do too well on my own

Verse:
        G#m E 
The only thing worse than not knowing
            B F# 
Is you thinking that I don't know
       G#m E 
I'm having another episode
           B F# 
I just need a stronger dose


Prechorus 1x

Chorus 2x

Prechorus 1x

Chorus 1x

Sweet Sacrifice Acoustic Chords – Evanescence

 Evanescence - Sweet sacrifice

This is how i play it.

Tuning: standard


 F#m D C#m 
It's true, we're all a little insane.
     F#m 
But it's so clear,
          D C#m 
Now that I'm unchained.


For this part see tab at bottom

Fear is only in our minds,
Taking over all the time.
Fear is only in our minds      F#m 
but it's taking over all the time.

 F#m D 
You poor sweet innocent thing.
 F#m D 
Dry your eyes and testify.
 F#m D 
You know you live to break me.
 F#m D 
Don't deny sweet sacrifice.

 F#m 
One day
             D C#m 
I'm gonna forget your name,
 F#m 
And one sweet day,
                     D C#m 
you're gonna drown in my lost pain.


see tab

Fear is only in our minds,
Taking over all the time.
Fear is only in our minds      F#m 
but it's taking over all the time.

 F#m D 
You poor sweet innocent thing.
 F#m D 
Dry your eyes and testify.
 F#m D F#m 
And oh you love to hate me, don't you, honey?
             D F#m Gm A (5th position)    
 B (7th position)
I'm your sacrifice.

 F#m Gm A B F#m Gm A B 
Do you wonder why you hate?
 F#m Gm A B F#m 
Are you still too weak to survive your mistakes?

 F#m D 
You poor sweet innocent thing.
 F#m D 
Dry your eyes and testify.
 F#m D 
You know you live to break me.
 F#m D 
Don't deny sweet sacrifice.


tab

E--------------------------------------------------|
B--2--------2-----3-----2-----3--------------------|
G--------4--------------------------4-----4-----4--|  X3
D-----4--------4-----4-----4-----4-----4-----4-----|
A--------------------------------------------------|
E--------------------------------------------------|

E-----------------------0-----2-----3-----2-----0--|
B--2--------2-----3--------------------------------|
G--------4-----------------------------------------|
D-----4--------4-----4-----4-----4-----4-----4-----|
A--------------------------------------------------|
E--------------------------------------------------|

Enjoy

The Best Years Of Our Lives Tabs by Evan Taubenfeld V2

 Song Title:   Best Years Of Our Lives
Band/Artist:  Evan Taubenfeld Ft. Avril Lavigne

Tabbed By:    Pauz Prima (@MastersVision)

------------------------------------------------------------------------------------------------

DROPPED D TUNING

Guitar 1 - Capo on 2nd fret (Tab relative to capo.)


INTRO: D-G-Bm-G (2x)

Guitar 1:

|---------3--------1-0-|---------3--------1-0-|---------3--------1-0-|---------3----------0-|
|-----1-------1--------|-----1-------1--------|-----1-------1--------|-----1-------1----3---|
|---0---0--------0-----|---0---0--------0-----|---0---0--------0-----|---0---0--------0-----|
|----------------------|----------------------|----------------------|----------------------|
|-3~--------3~---------|----------------------|-0~--------0~---------|----------------------|
|----------------------|-3~--------3~---------|----------------------|-3~--------3~---------|

Guitar 2:

|---------------------------------------------------------------------|
|---------------------------------------------------------------------|
|---------------------------------------------------------------------|
|----0-----0-----0----0-----0-----0----0-----0-----0----0-----0-----0-|
|---5-5---5-5---5----5-5---5-5---5----5-5---5-5---5----5-5---5-5---5--|
|-0-----0-----0----5-----5-----5----9-----9-----9----5-----5-----5----|


VERSE 1: D-G-Bm-G (2x)

Guitar 2:

|---------------------------------------------------------------------|
|---------------------------------------------------------------------|
|---------------------------------------------------------------------|
|----0-----0-----0----0-----0-----0----0-----0-----0----0-----0-----0-|
|---5-5---5-5---5----5-5---5-5---5----5-5---5-5---5----5-5---5-5---5--|
|-0-----0-----0----5-----5-----5----9-----9-----9----5-----5-----5----|


INTERLUDE: D-G-Bm-G

Guitar 1:

|---------3--------1-0-|---------3--------1-0-|---------3--------1-0-|---------3----------0-|
|-----1-------1--------|-----1-------1--------|-----1-------1--------|-----1-------1----3---|
|---0---0--------0-----|---0---0--------0-----|---0---0--------0-----|---0---0--------0-----|
|----------------------|----------------------|----------------------|----------------------|
|-3~--------3~---------|----------------------|-0~--------0~---------|----------------------|
|----------------------|-3~--------3~---------|----------------------|-3~--------3~---------|


Guitar 2:

|---------------------------------------------------------------------|
|---------------------------------------------------------------------|
|---------------------------------------------------------------------|
|----0-----0-----0----0-----0-----0----0-----0-----0----0-----0-----0-|
|---5-5---5-5---5----5-5---5-5---5----5-5---5-5---5----5-5---5-5---5--|
|-0-----0-----0----5-----5-----5----9-----9-----9----5-----5-----5----|


VERSE 2: D-G-Bm-G (2x) 

Guitar 1:

|---------3~----1-0-|---------3~-----1-0-|---------3~~----1-0-|---------3----------0-|
|-----1-------------|-----1--------------|-----1--------------|-----1-------1----3---|
|---0---0-----------|---0---0------------|---0---0------------|---0---0--------0-----|
|-------------------|--------------------|--------------------|----------------------|
|-3~----------3-----|--------------------|-0~-----------0-----|----------------------|
|-------------------|-3~-----------3-----|--------------------|-3~--------3~---------|

Guitar 2:

|---------------------------------------------------------------------|
|---------------------------------------------------------------------|
|---------------------------------------------------------------------|
|----0-----0-----0----0-----0-----0----0-----0-----0----0-----0-----0-|
|---5-5---5-5---5----5-5---5-5---5----5-5---5-5---5----5-5---5-5---5--|
|-0-----0-----0----5-----5-----5----9-----9-----9----5-----5-----5----|


PRE-CHORUS: A-Bm-A-F#m-G

Guitar 2:

|---

La Creacion Cantara Chords – Esperanza De Vida

 G C G 
Alabanza y honor, al Rey de los cielos, a Jesús Cordero de Dios,
                                          C 
Que por siempre reinará y por siempre será,
                        Am  
Dios de justicia y verdad,
        C G 
Y se oirá, sobre cielo y tierra de su Nombre,
 Am C D 
Todo pueblo, raza y nación, le adorarán.

          C G D Em  
La Creación cantará de su grandeza y poder
        C G D 
Y su amor derramado en esa Cruz,
       C G D Em  
Toda vida confesará que Tú eres Señor,
   Am C Am C D 
Rey soberano quien es y será por siempre por la eternidad.

   C D    Emm     D C D Em  
Ale-luya,  Ale-      luya,  Aleluya por siempre a Él

Hoy Es Tiempo Chords – Esperanza De Vida

 G/B C D Em  
Sin ser merecedor, me diste salvación
 G/B C D Em  
Quitando mi dolor y toda mi aflicción
 G/B C D Em  
Tu gracia me llenó soy libre del temor.

 Am Em D 
Ya por nada pararé, no me detendré.
 Am Em D 
En tu nombre venceré y a la cima llegaré.

     G D Em  
Hoy es tiempo de cambiar de no mirar atrás, de reflejar
 C G/B   - C  -  D 
Tu amor al mundo.
  G D Em  
Ya, no puedo esperar te quiero alabar, mi vida hoy
 C G/B   - C  -  D G 
Yo te la entrego.
Intro:
(G/ B  ,  C )
 G/B C D Em  
Sin ser merecedor, me diste salvación
 G/B C D Em  
Quitando mi dolor y toda mi aflicción
 G/B C D Em  
Tu gracia me llenó soy libre del temor.


 Am Em D 
Ya por nada pararé, no me detendré.
 Am Em D 
En tu nombre venceré y a la cima llegaré.


    G D Em  
Hoy es tiempo de cambiar de no mirar atrás, de reflejar
 C G/B   - C  -  D 
Tu amor al mundo.
  G D Em  
Ya, no puedo esperar te quiero alabar, mi vida hoy
 C G/B   - C  -  D G 
Yo te la entrego.

   C G D Em C G D 
Quiero proclamar de tu majestad, llevar de tu Luz en la
        Em C G D Em Am 
Oscuridad, llegar a la meta, ser parte del Plan, toma mi
   G/B D 
Vida y úsala.


     G D Em  
Hoy es tiempo de cambiar de no mirar atrás, de reflejar
 C G/B   - C  -  D 
Tu amor al mundo.
  G D Em  
Ya, no puedo esperar te quiero alabar, mi vida hoy
 C G/B   - C  -  D G 
Yo te la entrego.

Wonderful Tonight Acoustic Tabs by Eric Clapton V5

 Note: If you're finding the tabs hard to understand; play the chords that are 
above the tabs along with the finger picking: thumb, index, middle, index, ring, 
middle, index, middle.


Verse 1:
      G          D         C         D
e|-----3---------2---------0---------2------:|
B|---0--0-0----3--3-3----1--1-1----3--3-3---:|
G|--0-0--0----2-2--2----0-0--0----2-2--2----:|    }Play through twice.
D|-----------0-------------------0----------:|
A|---------------------3--------------------:|
E|-3----------------------------------------:|

(It's late in the evening, she wondering what clothes to wear.) 
(So she puts on her make up and brushes her long, blonde hair.)


Chorus:
       C         D         G        Em
e|-----0---------2---------3---------0--------|
B|---1--1-1----3--3-3----0--0-0----0--0-0-----|
G|--0-0--0----2-2--2----0-0--0----0-0--0------|
D|-----------0--------------------------------|
A|-3------------------------------------------|
E|---------------------3---------0------------|

(And then she asks me, "Do I look alright?" And I say-)
     
       C         D         G
e|-----0---------2---------3-----|
B|---1--1-1----3--3-3----0--0-0--|
G|--0-0--0----2-2--2----0-0--0---|
D|-----------0-------------------|
A|-3-----------------------------|
E|---------------------3---------|

("Yes you look wonderful tonight.")


       D         C         D
e|-----2---------0---------2------:|
B|---3--3-3----1--1-1----3--3-3---:|
G|--2-2--2----0-0--0----2-2--2----:|
D|-0-------------------0----------:|
A|-----------3--------------------:|
E|--------------------------------:|


Verse 2:
We go to a party and everyone turns to see.
This beautiful lady that's walking around with me.


Chorus:
And then she asks me, "Do you feel alright?"
And I say "Yes I feel wonderful tonight."


Middle:
       C         D         G        Em
e|-----0---------2---------3---------0--------|
B|---1--1-1----3--3-3----0--0-0----0--0-0-----|
G|--0-0--0----2-2--2----0-0--0----0-0--0------|
D|-----------0--------------------------------|
A|-3------------------------------------------|
E|---------------------3---------0------------|

(I feel wonderful because I see the love light in your eyes.)

       C         D         C         D         G
e|-----0---------2---------0---------2---------3-----:|
B|---1--1-1----3--3-3----1--1-1----3--3-3----0--0-0--:|
G|--0-0--0----2-2--2----0-0--0----2-2--2----0-0--0---:|
D|-----------0-------------------0-------------------:|
A|-3-------------------3-----------------------------:|
E|-----------------------------------------3---------:|

(And the wonder of it all is that you just don't realise how much I love you.)


Verse 3:
It's time to go home now and I've got an aching head,
So I give her the car keys and she puts me to bed.


Chorus:
And then I tell her as I turn out the light,
I say, "My darling you were wonderful tonight."


Outro:
      G          D         C         D
e|-----3---------2---------0---------2------:|
B|---0--0-0----3--3-3----1--1-1----3--3-3---:|
G|--0-0--0----2-2--2----0-0--0----2-2--2----:|    }Play through twice.
D|-----------0-------------------0----------:|
A|---------------------3--------------------:|
E|-3----------------------------------------:|

Am I Wrong Chords – Envy

 Capo 3
        
 Am F F Gmaj Am F F Gmaj 
Am I wrong, for thinking out the box from where I stay?
         
 Am F F Gmaj Am F F Gmaj 
Am I wrong, for saying that I`ll choose another way?
         Am F C Gmaj 
I ain`t trying to do what everybody else doing
         Am F C Gmaj  
Just cause everybody doing what they all do
      Am F C Gmaj 
If one thing I know, how far would I grow?
         Am F C Gmaj 
I´m walking down, this road of mine, this road that I call home


Ref:
          
 Am F F Gmaj Am F F Gmaj 
So am I wrong, for thinking that we could be something for real?
             
 Am F F Gmaj Am F F Gmaj 
Now am I wrong, for trying to reach the things that I can´t see?
                         Am F F Gmaj 
But that´s just how I feel, 
                    Am F F Gmaj 
that´s just how I feel
                  Am F F Gmaj Am F F Gmaj 
That´s just how I feel,    trying to reach the things that I can´t see


Vers:


      Am F F Gmaj Am F F Gmaj      
Am I tripping, for having a vision?
        Am F F Gmaj Am F F Gmaj 
My prediction, I´mma be on the top the world
 Am F F Gmaj  
Hope you, hope you don´t look back, always do what you decide
 Am F F Gmaj  
Don´t let them control your life, that´s just how I feel
 Am F F Gmaj  
Fight for yours and don´t let go, don´t let them compare you, no
 Am F F Gmaj  
Don´t, you´re not alone, that´s just how we feel

Ref:
          
 Am F F Gmaj Am F F Gmaj 
So am I wrong, for thinking that we could be something for real?
             
 Am F F Gmaj Am F F Gmaj 
Now am I wrong, for trying to reach the things that I can´t see?
                         Am F F Gmaj 
But that´s just how I feel, 
                    Am F F Gmaj 
that´s just how I feel
                  Am F F Gmaj Am F F Gmaj 
That´s just how I feel,    trying to reach the things that I can´t see


Bridge x2:
 Am F F Gmaj          
If you tell me I'm wrong, wrong
 Am F F Gmaj          
I don't wanna be right, right
 Am F F Gmaj          
If you tell me I'm wrong, wrong
 Am F F          
I don't wanna be right

Ref:
          

Turn The Night Up Tabs by Enrique Iglesias

 Turn The Night Up by Enrique Inglesias
No capo

Chorus:
             Gm                    
Baby it's you and me,
              (Am) A              (G) F#
You see, we can turn the night up
                 Gm  
And if you feel the way I feel
(Am) A               (G) F#---->(Slide up on D string until 14th fret)
We can turn the night up

After every "gimme some of that" and in verses and Pre-Chorus:
e|--------7-------------------------------------------------------------------|
B|----------------------------------------------------------------------------|
G|----------------------------------------------------------------------------|
D|---6-4----------------------------------------------------------------------|
A|----------------------------------------------------------------------------|
E|----------------------------------------------------------------------------|

(gimme some of that)
(gimme some of that)
(gimme some of that)

Verse 1:
Damn you look so sexy
Baby you impress me
I wanna get nasty
Girl you got the bom bom
Take a shot, you want one
Mama I can change your life

(gimme some of that)
Pre-Chorus
The way you do it
You got that something
You got that something
So keep it moving, you know I love it
You know I love it

Chorus:
Baby you it's you and me,
You see, we can turn the night up
And if you feel the way I feel
We can turn the night up

(gimme some of that)
(gimme some of that)

Verse 2:
Girl your body is effing
You know my intentions, I know you can go all night
I just wanna touch you, girl just let me touch
I know it's been on your mind

(gimme some of that)

Pre-Chorus:
The way you do it
You got that something
You got that something
So keep it moving, you know I love it
You know I love it

Bridge:
ONE LOVE

From Madrid, to Miami
From Miami, to the world

Chorus (X2):
Baby you it's you and me,
You see, we can turn the night up
And if you feel the way I feel
We can turn the night up

(gimme some of that)
(gimme some of that)
(gimme some of that)

Viceversa Tabs by Enjambre

 fergto78
--## Tablatura de mi versión para Viceversa de Enjambre,
por Fernando Arroyo, checa mi
cover, para mayor referencia de la tab, en youtube,

además, podrás bajar los backing tracks para practicar :)
Afinación estándar

Intro 

Guitarra 01
|-------------------------|
|-------------------------|
|.-13--11--13--14--10--7-.|2 tiempos
|.-----------------------.|
|--11--9---11--12--8---5--|
|-------------------------|
  F#m
|-9---|
|-10--|
|-11--|
|-11--|
|-----|
|-----|

Guitarra 02
   F#m   Dm
|--9-----10---|
|--10----10---|
|.-11----10--.|2 tiempos
|.-11----12--.|
|--9-----12---|
|--------10---|
  F#m
|-9---|
|-10--|
|-11--|
|-11--|
|-9---|
|-----|

Verso con puente al coro

Guitarra 01
  F#m
|-9---12b----------------------------------|
|-10------12b------------------------------|
|-11-----------10--9---11--13--14--9--7--9-|
|-11---------------------------------------|
|--------------8---7---9---11--12--7--5--7-|
|------------------------------------------|

Guitarra 02
  F#m  Dm     Dm7  C#m7 F#m        Bm7   E7no5
|-9----10---------------9------------------|
|-10---10-----10---9----10---------7-----5-|
|-11---10-----10---9----11---------7-----7-|
|-11---12-----10---9----11---------7-----6-|
|-9----12---------------9----------------7-|
|------10-----10---9---------------7-------|

Coro 

Guitarra 01
|----------------------16------|
|--------17-14~~----14----17~~-|
|.----13---------14-----------.|3 tiempos
|.-14-------------------------.|
|------------------------------|
|------------------------------|

Guitarra 02
   Amaj7 D5
 (3 tiempos)   C#5            D5
|--12--------|-------------------------------|
|--14--------|-------------------------------|
|.-13-------.|-------------------------------|
|.-14----12-.|-11-14--11--14--12--16--12--16-|
|--12----12--|-------------------------------|
|--------10--|-9--12--9---12--10--14--10--14-|

Guitarra 01
|----------------------19-16~~-|
|--------17-14~~----14---------|
|.----13---------14-----------.|3 tiempos
|.-14-------------------------.|
|------------------------------|
|------------------------------|

Guitarra 02
   Amaj7 D5
 (3 tiempos)   C#5            D5
|--12--------|--------(2 tiempos)--------------|
|--14--------|---------------------------------|
|.-13-------.|.-------------------------------.|
|.-14----12-.|.-11-14--11--14--12--16--12--16-.|
|--12----12--|---------------------------------|
|--------10--|--9--12--9---12--10--14--10--14--|

Guitarra 01
|-------------------------|
|-------------------------|
|.-13--11--13--14--10--7-.|2 tiempos
|.-----------------------.|
|--11--9---11--12--8---5--|
|-------------------------|
 
 F#m
|-9---|
|-10--|
|-11--|
|-11--|
|-----|
|-----|

Guitarra 02
   F#m   Dm
|--9-----10---|
|--10----10---|
|.-11----10--.|2 tiempos
|.-11----12--.|
|--9-----12---|
|--------10---|
  F#m
|-9---|
|-10--|
|-11--|
|-11--|
|-9---|
|-----|

Verso con puente al coro

Guitarra 01
|-12b--------------------------------|
|----12b-----------------------------|
|---------10--9--11--13--14--9--7--9-|
|------------------------------------|
|---------8---7--9---11--12--7--5--7-|
|------------------------------------|

Guitarra 02
         Dm7  C#m7 F#m        Bm7   E7no5
|------------------9------------------|
|--------10---9----10---------7-----5-|
|--------10---9----11---------7-----7-|
|--------10---9----11---------7-----6-|
|------------------9----------------7-|
|--------10---9---------------7-------|

Coro 

Guitarra 01
|----------------------16------|
|--------17-14~~----14----17~~-|
|.----13---------14-----------.|3 tiempos
|.-14-------------------------.|
|------------------------------|
|------------------------------|

Guitarra 02
   Amaj7 D5
 (3 tiempos)   C#5            D5
|--12--------|-------------------------------|
|--14--------|------------

Ausencia De Cocina Tabs by Enjambre

 fergto78
--## Tablatura de mi versión para Ausencia de cocina de Enjambre,
por Fernando Arroyo, checa mi
cover, para mayor referencia de la tab, en youtube,

además, podrás bajar los backing tracks para practicar :)
Afinación estándar
Intro 
  F#5
|-------------------------------|
|------(3 tiempos)--------------|
|.-----------------------------.|
|.-----------------------------.|
|--4-4-x-x-4-4-----4-x-4--------|
|--2-2-x-x-2-2-5-5-2-x-2-0-0-1--|

|------------------------------|
|------------------------------|
|------------------------------|
|------------------------------|
|-4-4-x-x-4-4-----4-x-4------4-|
|-2-2-x-x-2-2-5-5-2-x-2--0-1-2-|

Verso 
  F#m                     Bm              C#m7
|-2--2--------2--2--------2--2--------2---4---|
|-2----2------2----2------3----3------3---5---|
|-2------2----2------2----4------4----4---4---|
|-4-----------4-----------4-----------4---6---|
|-4-----------4--------2--2--------2--2---4---|
|-2--------2--2-----------------------------2-|
  F#m                     Bm              C#m7
|-2--2--------2--2--------2--2--------2---4-|
|-2----2------2----2------3----3------3---5-|
|-2------2----2------2----4------4----4---4-|
|-4-----------4-----------4-----------4---6-|
|-4-----------4--------2--2--------2--2---4-|
|-2--------2--2-----------------------------|

Puente 
  F#5
|---------------------------------------|
|---------------------------------------|
|---------------------------------------|
|---------------------------------------|
|-4-4-4-4-4-4-4-----4-4-4-4-4-4-4-------|
|-2-2-2-2-2-2-2-5-5-2-2-2-2-2-2-2-0-0-1-|
p.m. . . . . . . . . . . . . . . . . . .

|---------------------------------------|
|---------------------------------------|
|---------------------------------------|
|---------------------------------------|
|-4-4-4-4-4-4-4-----4-4-4-4-4-4-4-0-0-1-|
|-2-2-2-2-2-2-2-5-5-2-2-2-2-2-2-2-------|
p.m. . . . . . . . . . . . . . . . . . .
  B5 
|---------------------------------------|
|---------------------------------------|
|---------------------------------------|
|-4-4-4-4-4-4-4-----4-4-4-4-4-4-4-------|
|-2-2-2-2-2-2-2-5-5-2-2-2-2-2-2-2-0-0-1-|
|---------------------------------------|
p.m. . . . . . . . . . . . . . . . . . .
                     C#5    E5
|---------------------------------|
|---------------------------------|
|--------------------6-6-6--9-9-9-|
|-4-4-4-4-4-4-4------6-6-6--9-9-9-|
|-2-2-2-2-2-2-2-5-5--4-4-4--7-7-7-|
|---------------------------------|
p.m. . . . . . . . .

coro 
   A      F#m7
|--9------9----|
|--10-----10---|
|.-9------9---.|3 tiempos
|.-11-----11--.|
|--0------10---|
|--------------|
  B       E7
|-7-------7----|
|-7-------9----|
|-8-------7----|
|-9-------9----|
|-9-------7----|
|-7------------|
   A      F#m7
|--9------9----|
|--10-----10---|
|.-9------9---.|3 tiempos
|.-11-----11--.|
|--0------10---|
|--------------|
  B       E7    C#7
|-7-------7-----9---|
|-7-------9-----9---|
|-8-------7-----10--|
|-9-------9-----9---|
|-9-------7-----11--|
|-7-------------9---|

Puente al verso 
  F#5
|-----------------------------|
|-----------------------------|
|-----------------------------|
|-----------------------------|
|-4-4-x-x-4-4-----4-x-4-------|
|-2-2-x-x-2-2-5-5-2-x-2-0-0-1-|


  F#5
|------------------------------|
|------------------------------|
|------------------------------|
|------------------------------|
|-4-4-x-x-4-4-----4-x-4------4-|
|-2-2-x-x-2-2-5-5-2-x-2--0-1-2-|

Verso 
  F#m                     Bm              C#m7
|-2--2--------2--2--------2--2--------2---4---|
|-2----2------2----2------3----3------3---5---|
|-2------2----2------2----4------4----4---4---|
|-4-----------4-----------4-----------4---6---|
|-4-----------4--------2--2--------2--2---4---|
|-2--------2--2-----------------------------2-|
  F#m                     Bm              C#m7
|-2--2-----

Survival Tabs by Eminem V2

 Just play this riff durning the song..many times.
E----------------------------------------------------------|
B----------------------------------------------------------|
G---------------3-5----7-7---------------------------------|
D--5-----3-3----3-5----7-7---------------------------------|
A--5-----3-3----1-3----5-5---------------------------------|
E--3-----1-1-----------------------------------------------|
  this   is survival of the fittest
Repeat this riff till the end.



ps:my english is horrible.

Survival Tabs by Eminem V3

 -------------------------------------------------------------------------------
                             SURVIVAL - EMINEM
-------------------------------------------------------------------------------
Tabbed by: JAMES

THIS IS THE CORRECT WAY TO PLAY, I WATCHED THE GUITARIST WHEN SEEING IT LIVE IN GLASGOW

Intro Riff:

e---------------------------------------|
B---------------------------------------|     
G---3----------3---------3------------7^|    
D-----5--3--5----5--3--5----5--3--5-----|  
A---------------------------------------|     
E---------------------------------------| 

e|--------------------------------------------------------------------------|
B|--------------------------------------------------------------------------|
G|------------------3--3----5--7---7----------------------------------------|
D|---5----3---------3--3----5--7---7----------------------------------------|
A|---5----3---------1--1----3--5---5----------------------------------------|
E|---3----1-----------------------------------------------------------------|

Teenage Kings Tabs by Emblem 3

 Teenage Kings by Emblem3
Tuning: Standard

Intro: (Also plays in the verse)

|-----------------------------------|
|------5-----8------6----------8----|
|-------5---7---------7-7-----9-----|
|----5-----5------7----7------------|
|---3------------5--------5s8-------|
|-----------------------------------|

Chords:

    C         G        Dm         F        
|-------| |-------| |-------| |-------| 
|---5---| |-------| |---6---| |-------| 
|---5---| |---4---| |---7---| |---2---|
|---5---| |---5---| |---7---| |---3---| 
|---3---| |---5---| |---5---| |---3---| 
|-------| |---3---| |-------| |---1---| 

C                      G
I take a puff of my cigarillo,
     Dm                     F
Then I say what up like, "Hello."
C                        G
Party hard, pedal to the metal.
  Dm                            F
A part of growing up is living like a rebel.
C                     G
No stoppin the girls from teeny-boppin.
Dm                     F
No tops, just rockin bikini bottoms.
C                   G
Backyard boxin, half pipe droppin,
     Dm                          F
The jocks and the nerds man everybody's rockin.
-----------------------------------------------------------------------------
Refrain:
C        G             Dm         F
 And when we are all looking back
(One day when we're lookin back),
C                           G              Dm
 We'll think of this night so let's make it last.
-----------------------------------------------------------------------------
Chorus:
F            C         F       G             F
Cause we're teenage kings pretending we're famous,
    C           F       G                F
And we won't leave til someone gets shameless,
        C                     F
It's a five-day fight til the saturday night
         G                      F
When the guys get hyped and the girls get low!
 C        F      G               F
Teenage kings pretending we're famous, yeah.
-----------------------------------------------------------------------------

(Intro tab)

C                         G
 I take a sip of another Red Bull,
     Dm                             F
Everybody on the move lookin for someone to XO.
C                            G
Everything is good, and everything is cool,
  Dm                          F
Except for the fool who fell into the pool.
C                              G
 What up ladies, I'm glad that you could stop by,
Dm                  F
 Freshmen trippin out because you got high,
C                             G
And daisy dukes when you walk by, I swat thighs,
Dm                           F
 Let the good times roll and let the top fly!

(Refrain)
(Chorus)

C   F      G                F
 Nina with Josie, with Jack McColl!
C      F      G            F
 Jay's actin dumb runnin into walls.
C    F             G             F
 Someone's passed out with the candle.
      C                F          G       F
We're rollin, we're rollin, like teenage kings.

(Refrain)
(Chorus)

http://www.youtube.com/watch?v=4N2pm6JSz7A (Teenage Kings)

The Next Step Is Love Chords – Elvis Presley

 key:  Ab 
   Intro:   Eb Gm Bbm Eb Ab Bb 
    Yesterday, I slipped away
                                      Gm 
    The sun is welcoming the evening shadows
                  Cm Eb Fm Bb 
    On a perfect day and the next step is love
                      Eb Cm Bb 
    The next step is love


               Eb Cm 
    We walked barefoot through the misty meadows
     C5 Bb Eb Cm Bb 
    Laughing at each other in the rain
               Eb Cm 
    Made some faces at some people in the park
            Bb Eb Cm Bb 
    Didn't bother to explain
     Eb Db  
    Fun, fun, look at us run
     Cm Bb Eb Cm Bb 
    Going nowhere special really fast
               Eb Db Cm 
    But we've yet to taste the icing on the cake
                     Bb Eb Ab Eb 
    That we've been baking with the past


                           Ab 
    And the next step is love
                            Eb 
   So what are we waiting for?
                       Ab 
    The next step is love
                      Eb 
     Girl, it's for sure
          Ab Bb 
    Yesterday, I slipped away
                                      Gm 
    The sun is welcoming the evening shadows
                  Cm Eb Fm Bb 
    On a perfect day and the next step is love
                      Eb Dm C 
    The next step is love

     F Dm 
    Love will be a place to run to
     Bb C F Dm C 
    From the world they've built to you and me
              F Eb 
    We'll be closer than we've ever been
            Dm C5 F Dm C 
    Though looking back it's so hard to believe
     F                  
    Hang it all out or bring it all in
         Dm C F5 Eb Dm C 
    The best we've picked upon the way tonight
     F Dm Bb 
    Changes are coming but together
            C F Bb F 
    We can make it through somehow


          Ab 
    And the next step is love
                            Eb 
   So what are we waiting for?
                       Ab 
    The next step is love
                      Eb 
     Girl, it's for sure
          Bb C 
    Yesterday, I slipped away
                                      Am 
    The sun is welcoming the evening shadows
                  Dm F Bb Gm Cm F 
    On a perfect day and the next step is love
                      Eb Dm C 
    The next step is love
               Fm Eb Dm F 
    Yes it's love
                        Eb Dm F 
    The next step is love
              F Eb Dm F 
    Yes it's love
                      F <sp