Month: August 2013

Zene Chords – Decokvaritelji

 A5 
HEJ, nastale su devojcice od jednog jedinog rebra,
I onda su me naterale da pojedem jabuku
I sve je otislo u krasan...

 Am  -  Am  -  Am  -  G  (u SKA ritmu)

(refren)
 A5 
Volimo ih volimo
 G5 
Dok ceskaju nam glavu...
 F5 
Volimo ih volimo
 E5 
Jer uvek su u pravu...
 A5 G5 
Volimo ih zato sto su najveca enigma.
 F5 E5 
Volecemo, volecemo, sve dok traje igra...
Volimo ih kada od nas prave krivce,
Volimo ih cak i kada kidaju nam zivce...
"Zasto ih volimo?" sad pitate mene!
Volimo ih zato sto su jednostavno zene!!!

(u SKA ritmu)
 Am 
Vi ste ta mozaicna bica.
                       G 
Vi ste tako slozena prica.
 Am 
Vi bacate u komu jadnog mladica.
                           G 
To je za vas samo obicna sica.
 Am 
Bacala me svuda
Ta devojka luda.
Ozledio sam muda.  
                  G 
Mnogo uzaludnog truda.
Njenih stopala masaza,
Da se oseca vazna...
Misli da je bitna,
Ja sam gnjida sitna!!!
Bezi covece, bezi od nje!!!
Sreo sam ranije lepotice te...
Blistaju im oci u mesecevoj noci.
Nema ti pomoci, propast ce doci!
Lepota, lepota, za oci hrana.
Bolje kupi kilo banana!
Kafana, da ubijes tugu posle nje!
Popio sam lozu i to litre dve!
I placem, zavijam, narucio sam kavijar.
I placem, tugujem, sa alkoholom drugujem.
I placem, zavijam, narucio sam kavijar.
I placem, tugujem, sa alkoholom drugujem.

(refren)

Sranje, sranje, smrdi mi iz usta!
Treba da je vidim, situacija je gusta!
Od nepoznatog prolaznija pozajmio sam zvaku.
Sada vise nisam, vise nisam u bedaku.
Ja cekam je,
A nje na horizonti nema!
Smrzavam se jadan,
Oluja se sprema!
Camim tako sam na dogovorenom mestu.
Toliko dugo cekam da sam napisao pesmu!
Pocinjem da besnim!
Pocinjem da penim!
Pocinjem da divljam, vise necu da se igram!
Nje nema da se javi,
Nje nema da pozove,
Nje nema da me povadi iz camotinje ove!
Gotovo je, odlazim!
Puklo mi je sve!
Ne zelim vise da slusam glupe price!
"Morala sam ovo,
Morala sam ono!"
Svaki put opravdano,
Uvek nesto novo!
A onda se pojavila i osmeh mi izmamila.
Kad me je poljubila, sva ljutnja se izgubila.
Skroz se raspekmezila, neodoljivo iskezila.
Ja nista nisam rekao, iako sam je cekao!!!

Pa kaze,
(refren X2)

Transkripcija: Stevan Golubovic

2 Hearts 2 Break Chords – Cinder Road

 Bb  x13331

Capo 1

intro   Dm Bb  x2

 Dm Bb 
I never knew love hurt till I fell in love
 Dm Bb 
I didn't know how to live till I gave up
 Dm Bb 
I couldn't see where to turn till I got lost
 F C 
I didn't think I could lose till I paid the cost

 Bb C Dm 
What do you do when you're not OK
     Bb C Dm 
And how do you speak when there's nothing to say
  Bb Dm G 
Where do you go when you don't want to leave but can't stay
      Bb C 
And who gets to choose when there are 2 hearts 2 break

 Dm Bb Dm Bb 
We always have the very best intentions
 Dm Bb 
To take things in the right directions but
 Dm Bb 
Now we both know where that's gonna get you
 F C        
A broken heart another scar that breaks you in two

 Bb C Dm 
What do you do when you're not OK
     Bb C Dm 
And how do you speak when there's nothing to say
  Bb Dm G 
Where do you go when you don't want to leave but can't stay
      Bb C 
And who gets to choose when there are 2 hearts 2 break

 Bb              
...what's left of me
 C Dm F 
Take all that you need while leaving the rest behind

It's all the same to me 
 Bb C 
I know that you need it both of us are bleeding
        Dm G Bb 
It was all just a matter of time we've been living a lie        C        

          Dm F Dm F 
This time this is goodbye

 Bb C Dm 
What do you do when you're not OK
     Bb C Dm 
And how do you speak when there's nothing to say
  Bb Dm G 
Where do you go when you don't want to leave but can't staaaaaaaaaaaay
      Bb C 
And who gets to choose when there are 2 hearts 2 break

    Bb 
...what's left of me
 C Bb               
Take all that you need, break what's left 
            Dm 
Cause it's all the same
 Bb Dm C 
Break what's left of me take all that you need
 Bb C                
Here's how it feels when there are 2 hearts 2 break
 Dm Bb 
           2 hearts 2 break
 Dm Bb 
           2 hearts 2 break
 Dm Bb 
           2 hearts 2 break
 Dm Bb

Think Of You Chords – Christina Grimmie V2

 Capo 3

Intro:  Am F C Am F C 

[Verse I]
            Am F C G 
It's been awhile, I should be moved on
            Am F C G 
'Cause I shouldn't be writing you this song 
   Am F C G 
Haven't crossed my mind for so long 
       Am F 
But tonight you're the movie, I want to leave on 

 Am F C G  
Not enough rooms in this house
 Am F C G 
To hold all the treasures we found 
  Am F C G 
Evidence of us all around 
   Am F                                       
Your fingerprints all over who I am now 

[Chorus]
 C Am  
Oooh, 
    F G C Am 
We wished on these stars they were ours they remind me of you 
           F C G 
I'm still letting you go I just want you to know 
                 Am F C 
That I think of you, think of you 
          Am F C 
Think of you, think of you 

[Verse 2] 
 Am F C G 
The space in the back of my mind 
 Am F C G 
I meet you there to reminisce from time to time
      Am F C G  
That you were the light, the blue in my skies
 Am F C G 
I saw the shades of myself in your eyes 

[Chorus] 
 C Am 
You, 
    F G C Am 
We wished on these stars they were ours they remind me of you 
           F C G 
I'm still letting you go I just want you to know 
                 Am F C 
That I think of you, think of you 
            Am F C 
I think of you, think of you 
           Am F C 
I think of you, oh 
            Am F C 
I think of you, I think of you 
 Am F C Am F C 
Think of you, think of you 
 Am G C Am G 
Think of you, think of... 

[Chorus]
 C Am  
You, 
    F G C Am 
We wished on these stars they were ours they remind me of you 
           F C G Am 
I'm still letting you go I want you to know, yeah
    F G C Am 
We wished on these stars they were ours they remind me of you, yeah 
           F C G   
I'm still letting you go I want you to know
                 Am F C  
That I think of you, think of you 
            Am F C 
I think of you, I think of you

Outro:  Am F C G Am F C

I Bet You Dont Curse God Chords – Christina Grimmie V2

 Capo 1

Intro:  Em C G D 

[Verse 1:]
                       Em 
I bet you don't curse God
When the doctor calls 
       C 
With a stern voice and the test results 
       G D 
And he asks you to come in right away

                       Em 
I bet you don't curse God
When you're on a plane 
     C 
In a turbulence, pourin' rain
          G D 
And you're hoping that you'll make it out okay



[Pre-chorus:]
   Em 
Everybody cries
    C 
We've all faked a smile
           G 
When your back's against the wall
          D 
And your hands are tied



[Chorus:]
         Em C           
There's pain, Life hurts
             G 
There's a thousand things
                       D 
You think you don't deserve
     Em C 
All hope is lost
            G 
When You spend it all 
                              D  
And you just can't beat the odds
                       Em C 
I bet you don't curse God
                        G D 
I bet you don't curse God



[Verse 2:] 
                       Em 
I bet you don't curse God
When your child is gone
       C 
And he ain't picking up the phone
         G D 
And it's 2am on a Saturday in July

                       Em 
I bet you don't curse God
At your bottom line 
         C                    
And your credit cards are all declined
        G D 
And you don't know where you're gonna sleep tonight



[Pre-chorus:]
   Em 
Everybody cries
   C 
We've all faked a smile
           G  
When your back's against the wall
          D 
And your hands are tied



[Chorus:]
         Em C 
There's pain, Life hurts
             G 
There's a thousand things
                       D  
You think you don't deserve
     Em C 
All hope is lost
           G 
When You spend it all 
                             D 
And you just can't beat the odds
                       Em C 
I bet you don't curse God
                        G D 
I bet you don't curse God



[Verse 3:]
                        Em 
I bet you don't curse God
                            C 
When you're dying in bed      
About to take your one last breath 
           G D 
And you're holding on before you say goodnight



[Chorus:]
          Em C 
There's pain, Life hurts
             G 
There's a thousand things
                       D  
You think you don't deserve
           Em C 
When all hope is lost
            G 
When You spend it all
                             D  
And you just can't beat the odds
                       Em C G D 
I bet you don't curse God
                       Em C G D 
I bet you don't curse God
                       Em    
I bet you don't curse God

Hurt Chords – Christina Aguilera V6

 This is how I hear it. It's my first tab so be nice! (:
No capo.




 Em B Em 
Seems like it was yesterday when I saw your face
                 C Am 
You told me how proud you were when I walked away
            B 
If only I knew what I know today
 Em 
ooooooo

         C 
I would hold you in my arms
         A 
I would take the pain away
 D 
Thank you for all you've done
 B 
Forgive all your mistakes
 C 
There's nothing I wouldn't do
    A 
To hear your voice again
    D 
Sometimes I want to call ya
       B 
But I know you won't be there


 Em B Em 
Woah I'm sorry for blaming you
          C Am 
For everything I just couldn't do
                 B Em 
And I've hurt myself by hurting you

 Em B Em 
Some days I feel broke inside but I won't admit
                  C Am 
Some days I just want to hide cuz' it's you I miss
                         D Em 
It's so hard to say goodbye when it comes to this

Ooh Ooh


           C 
Would you tell me I was wrong
           Am 
Would you help me understand
         D 
Are you looking down upon me
         B 
Are you proud of who I am
  C 
There's nothing I wouldn't do
    Am 
to have just one more chance
    D 
To look into your eyes
     B 
And see you looking back

 Em B Em 
Ooh I'm sorry for blaming you
          C Am 
For everything I just couldn't do 
                  B Em 
And I've hurt myself, Woah


                        C 
If I had just one more day
         Em C 
I would tell you how much that I've missed you since you've been away
     Am E Am 
And oh, it's dangerous And so out of line
                      B Em  
To try and turn back time


            B Em 
I'm sorry for blaming you 
          C Am 
for everything I just couldn't do
                  B C B              
and I've hurt myself 
              Em 
by hurting you

Uncreated One Chords – Christ For The Nations

 VERSE 1
          D2 F#m E D2 F#m E 
Let the worship of Heaven come alive in this time and in this land
 D2 F#m E Bm7 F#m/C# E 
Now is the hour for our song to arise
INTERLUDE
 Bm7 A E Bm7 A E Bm7 A E D2 
VERSE 2
         D2 F#m E D2 F#m E 
Let the worship of Heaven come alive and awaken our hearts again
 D2 F#m E Bm7 A/C# Esus E 
Now is the hour for our song to arise  
CHORUS
          Bm7 A E Bm7 E/G# A 
Let our wor- ship arise to the uncre- ated One
           Bm7 A E D 
Let our wor- ship arise from our hearts
          Bm7 A E Bm7 A/C# D 
Let our wor- ship arise to the One who reigns forever
           Bm7 A E D 
Let our wor- ship arise from our hearts
Repeat VERSE 1
Repeat CHORUS
Repeat INTERLUDE
BRIDGE
      D E/G# 
Release Heaven’s sound, Shake the nations
       A Bm7 
Let our worship arise to the God of the ages
Repeat
      D/F# E/G# 
Release Heaven’s sound, Shake the nations
       A/C# D 
Let our worship arise to the God of the ages
Repeat
 A/E B/F# 
CHORUS
          C#m7 B F# C#m7 F#/A# B 
Let our wor- ship arise to the uncre- ated One
          C#m7 B F# E 
Let our wor- ship arise from our hearts
          C#m7 B F# C#m7 B/D# E 
Let our wor- ship arise to the One who reigns forever
          C#m7 B F# E 
Let our wor- ship arise from our hearts
BRIDGE
        E/G# F#/A# 
Release Heaven’s sound, Shake the nations
        B/D# E 
Let our worship arise to the God of the ages

Gods Great Dance Floor Chords – Chris Tomlin V3

 Capo 3

Intro  G/B Cadd9 G D  (x2)

VERSE 1
 G/B Cadd9                             
      I'm coming back to the start
 G D 
      Where You found me
 G/B Cadd9 
      I'm coming back to Your heart
 G D 
      Now I surrender
 Am Em G Cadd9 
Take me, this is all I can bring

Instrumental  G/B Cadd9 G D  (x2)

VERSE 2
 G/B Cadd9 
      I'm coming back to the start
 G D 
      Our God is freedom
 G/B Cadd9 
      And here we feel Your heart
 G D 
      Your heart beat for us
 Am Em G Cadd9 
Take me, this is all I can bring

CHORUS 1:
        G/B Cadd9 
You'll never stop loving us
    G D 
No matter how far we run
        G/B Cadd9 
You'll never give up on us
        G D 
All of heaven shouts, let the future begin
 G/B Cadd9 G D 
(Instrumental)  let the future begin
 G/B Cadd9 G D 
(Instrumental)

BRIDGE
 Am Em G Cadd9 
Take me, this is all I can bring

Repeat chorus 1

OUTRO:
 G/B Cadd9 
 I feel alive, I come alive
 G D 
 I am alive on God's great dance floor
(Repeat several times)
 G/B Cadd9 G D 
          On god's great dance floor! 
 G/B Cadd9 G D

Just Like The Ocean Tabs by Chris Ross

 The tab isn't 100% since there isn't a really set strum pattern.  Youtube the song to 
get the timing and whatnot down.  CAPO THE 3RD FRET!!! :D  Good luck, this took me a while 
to learn and a long time to tab. :)

Intro:
e----------------------------------------|
B---3-3-------3-3----3-3-----------------|
G---0-0-----0-0-0----0-0-----------------|
D-------0h2-0------------0h2-2/4-4\2-0---|
A----------------------------------------|
E-3~--------------3~---------------------|

e----------------------------------------|
B---3-3-------3-3----3-3-----------------|
G---0-0-----0-0-0----0-0-----------------|
D-------0h2-0------------0h2-2/4-4\2-0---|
A-2~--------------2~---------------------|
E----------------------------------------|

e----------------------------------------|
B---3-3-------3-3----3-3-----------------|
G---0-0-----0-0-0----0-0-----------------|
D-------0h2-0------------0h2-2/4-4\2-0---|
A----------------------------------------|
E-3~--------------3~---------------------|

e----------------------------------------|
B---3-3-------3-3----3-3-----------------|
G---0-0-----0-0-0----0-0-----------------|
D-------0h2-0------------0h2-2/4-4\2-0---|
A-2~--------------2~---------------------|
E----------------------------------------|


(For the verses, just strum the two chords from the intro, sorta muted a bit)

For lack of proper names, I'm just going to call these chords G and G2...

G      G2
e-x-   e-x-
B-3-   B-3-|
G-0-   G-0-|
D-0-   D-0-|
A-x-   A-2-
E-3-   E-x-

G
Have you heard?
        G2
It's a steady stumble
  G
A lonely girl
         G2
Make you crack and crumble
   G
I ain't no kid babe
   G2
I slept through ages
   G
I read your face
      G2
And I kept the pages


(For the prechorus, play the intro again and sing)
e----------------------------------------|
B---3-3-------3-3----3-3-----------------|
G---0-0-----0-0-0----0-0-----------------|
D-------0h2-0------------0h2-2/4-4\2-0---|
A----------------------------------------|
E-3~--------------3~---------------------|

e----------------------------------------|
B---3-3-------3-3----3-3-----------------|
G---0-0-----0-0-0----0-0-----------------|
D-------0h2-0------------0h2-2/4-4\2-0---|
A-2~--------------2~---------------------|
E----------------------------------------|

e----------------------------------------|
B---3-3-------3-3----3-3-----------------|
G---0-0-----0-0-0----0-0-----------------|
D-------0h2-0------------0h2-2/4-4\2-0---|
A----------------------------------------|
E-3~--------------3~---------------------|

e----------------------------------------|
B---3-3-------3-3----3-3-----------------|
G---0-0-----0-0-0----0-0-----------------|
D-------0h2-0------------0h2-2/4-4\2-0---|
A-2~--------------2~---------------------|
E----------------------------------------|
And it's alright
If you walk away
And it's alright
If you wanna stay

e-x--x-x-x-x---x-x---x-x-x-x--x--------------------------------|
B-3~-3-3-3-3~--3-3~--3-3-3-3--3--3-3-3-3-3-3-3-3-3-3-3-3-3-3-3-|
G-0~-0-0-0-0~--0-0~--0-0-0-0--0--0-0-0-0-0-0-0-0-0-0-0-0-0-0-0-|
D-0~-0-0-0-0~--0-0~--0-0-0-0--0--4-4-4-5-5-5-5-4-4-4-2-2-2-2p0-|
A-x--x-x-x-x---x-x---x-x-x-x--x--0-0-0-0-0-0-0-0-0-0-0-0-0-0-0-|
E-3~-3-3-3-3~--3-5~--5-5-5-5~-5--5-5-5-5-5-5-5-5-5-5-5-5-5-5-5-|
And it rolls just like the ocean

e-x--x-x-x-x---x-x---x-x-x-x--x--------------------------------|
B-3~-3-3-3-3~--3-3~--3-3-3-3--3--3-3-3-3-3-3-3-3-3-3-3-3-3-3-3-|
G-0~-0-0-0-0~--0-0~--0-0-0-0--0--0-0-0-0-0-0-0-0-0-0-0-0-0-0-0-|
D-0~-0-0-0-0~--0-0~--0-0-0-0--0--4-4-4-5-5-5-5-4-4-4-2-2-2-2p0-|
A-x--x-x-x-x---x-x---x-x-x-x--x--0-0-0-0-0-0-0-0-0-0-0-0-0-0-0-|
E-3~-3-3-3-3~--3-5~--5-5-5-5~-5--5-5-5-5-5-5-5-5-5-5-5-5-5-5-5-|
And it rolls just like the ocean

e-x--x-x-x-x---x-x---x-x-x-x--x--------------------------------|
B-3~-3-3-3-3~--3-3~--3-3-3-3--3--3-3-3-3-3-3-3-3-3-3-3-3-3-3-3-|
G-0~-0-0-0-0~--0-0~--0-0-0-0-

Fallin Apart Tabs by Chris Ross

 A very "radio" sounding song on Chris Ross' sophomore album "Halfway to Wonderland".  
Fallin' Apart is a fun song to play.  Standard tuning without a capo.  Check out the 
Youtube guitar lesson that Chris made for the song!  Good luck!

Intro/Verse Riff
e-----------------------------------------------------------|
B-----------------------------------------------------------|
G-------------------------------9-7-6-7-6-7-6-9-7-6-7-6-7-6-|
D-11-9-7-9-7-9-7-11-9-7-9-7-9-7-0-0-0-0-0-0-0-0-0-0-0-0-0-0-|
A--0-0-0-0-0-0-0--0-0-0-0-0-0-0-----------------------------|
E-----------------------------------------------------------|

(Intro is played twice before Chris sings)

You stole me away with the mitts of a Midas
You held me till I turned into gold
And the pleas we made to the sheets there beside us
Said we never ever wanna grow old

Now this bed's caught fire
And the flame returns
And I'll lay with you waitin' just
Quietly bracin' for the crash and burn

(Strum these two chords during the "It'll come in the night..." part)

C#m
e-4-
B-5-
G-4-
D-6-
A-4-
E-x-

Bm?
e-2-
B-3-
G-2-
D-4-
A-2-
E-x-

      C#m
It'll come in the night, it won't make a sound
      Bm
It'll all be over real soon
       C#m
'Cause fallin' in love is just like fallin' apart
            Bm
And there's nothin' I can do
         D
No this ain't just a spark honey I'm
E
Fallin' apart with you

(Intro twice before Chris sings again)

e-----------------------------------------------------------|
B-----------------------------------------------------------|
G-------------------------------9-7-6-7-6-7-6-9-7-6-7-6-7-6-|
D-11-9-7-9-7-9-7-11-9-7-9-7-9-7-0-0-0-0-0-0-0-0-0-0-0-0-0-0-|
A--0-0-0-0-0-0-0--0-0-0-0-0-0-0-----------------------------|
E-----------------------------------------------------------|
Hot through the curtains the daylight's upon us
And it's singing your praises loud
And I can't say for certain I could keep every promise
But I could make 'em all right now

Cause this bed's caught fire
And the flame returns
And it rings like a symphony the
Prettiest revelry you ever heard

(Strum these two chords during the "It'll wake up the neighbors..." part)

C#m
e-4-
B-5-
G-4-
D-6-
A-4-
E-x-

Bm?
e-2-
B-3-
G-2-
D-4-
A-2-
E-x-

      C#m
It'll wake up the neighbors, it'll shake through the ground
      Bm
It'll break through the bricks and the blues
       C#m
'Cause fallin' in love is just like fallin' apart
            Bm
And there's nothin' I can do
         D
No this ain't just a spark honey I'm
E
Fallin' apart with you

(Play Intro twice before the Bridge)

       A
It'll crash with a quiet crescendo
      C#m
It'll crack through the glass of your walls
      Bm
It'll follow you wherever that you go
      D
'Till all that you can do is crawl
      A
It'll strike up a conversation
       C#m
And every word it says is true
       Bm
It's Heaven's own confirmation
         D
No this ain't just a spark honey I'm
E
Fallin' apart with you

(When playing live, Chris plays the intro riff two more times...Ending the second time with this)

e-------------------------------------|
B-------------------------------------|
G-9-7-6-7-6-7-6-9-7-6-7-6-7-6-4~-2~---|
D-0-0-0-0-0-0-0-0-0-0-0-0-0-0-0~-0~---|
A-------------------------------------|
E-------------------------------------|

The Tower Chords – Chris De Burgh V3

 THE TOWER - CHRIS DE BURGH - 

CAPO 5th - I played this without a capo at first and then conformed to the capo 
5th - it depends on the individual style and the octaves you can achieve with your 
vocals - it sounds good either way - a beautiful ballad

 C  -  Em  -  F  -  C C Em 
1. A great lord came walking through the forest one morning
             F C 
    with a weapon in his hand
                           Em 
     rich was his castle, he lacked for nothing
      F G 
    killing was his plan.
            Am Em 
    When a white bird flew by, she fell from the sky,
    F C Dm G C 
    nothing was found, only blood on the ground,     she was gone.
 
    C Em       
2. Cursing his fortune, he turned to the forest
     F C 
    to kill once again.
     C Em       
    Standing before him was a lovely young woman
              F G 
    with her head hung in pain.
             Am Em 
    When he saw her, his eyes were filled with desire,
         F C Dm G                      
    he said, "I must have her, she must be mine !
                 C        -  F  -  G 
    She will be mine !"
 
        C Em       
3. He offered her silver, he offered her gold,
             F C 
    but she threw it on the ground.
            C Em       
    He fell to his knees and he begged her, "Oh please,
           F G 
    come with me, what you wish will be found."
               Am Em 
    She said, "Sir, I'll go if you'll put up your bow,
     F C Dm G                    
    spare these creatures, leave them in peace.
                    E 
    You have no need.”
  
 
             Dm G C 
    But her words were lost in the wind,
         F C G 
    his eyes were fixed on a queen.
      Am Em Dm G C 
    And all he saw was a woman but all she was, was a dream.
      F G E Am F C G    -  G7 
    Ah ah, ah ah, la la la, la la la, la.
    Am Em Dm G C 
    And all he saw was a woman but all she was, was a dream.
 
    C Em       
4. He took her and bound her with ropes tied around her,
            F C 
    to his castle he did ride.
     C Em       
    In a wood was a bower where stood an old tower,
            F G 
    and he threw her deep inside.
              Am Em 
    Then the birds left the sky and a terrible cry,
             F C Dm G                  
    brought thunder and lightning, rain falling down,
                  C         
    tears on the ground.
 
    C Em 
5. All through the days on her face he would gaze,
                F C 
    for she was lovely as the spring.
     C Em 
    No words would she speak but, “Leave them in peace!”
              F G 
    And some sad lament she would sing.
 
  

Go Where Your Heart Believes Chords – Chris De Burgh

 Chris de Burgh - Go Where Your Heart Believes
From the album: Moonfleet & Other Stories


 F Bb F Bb C F  
  Freedom calls
 Bb C Bb 
  And in your heart you have been waiting
    F Bb C 
  For this moment to come
 Dm 
  Within these walls
             Bb Dm Bb 
  You have heard words of inspiration
    C Dm C 
  That have opened your eyes

           Am 
  I am old
                       Dm Gm 
  But there's a wisdom that comes with years
 C Am Dm C        
  You are young and it's so easy when you have no fears

   F Em F 
  Go, go where your heart believes
        Bb 
  Your memories are waiting
                  C F C Bb 
  It's the only way to find out who you are

  F C 
  In this life
               F Bb 
  There is a road that you must follow
           C 
  To the left or the right
  F C Dm F 
  One is wide but the other is hard and narrow
 Bb F 
  Take this one and you can call it your own
  C F Gm C 
  There will be so many voices trying to turn you round
            Am Dm Gm C 
  Take a moment just to listen then carry on

   F Em Dm 
  Go, go where your heart believes
             Bb 
  Your memories are waiting
                  C F 
  It's the only way to find out who you are

                  Ab 
  There will be times when you're lost and lonely
                               Eb 
  And you will have no-one beside you
        Ebm F# 
  And that is when you'll find the hidden one inside
             C Dm 
  Who will help you through

   Bm Em Am D Bm Em Am D C D C D G Em G 
  Go, go where your heart believes
         C 
  Your memories are waiting
              G D G D Em 
  And your dreams are on their way; go, go to your destiny
        C G D G D 
  You know I will be with you every step of the way,  go
 Em G C G D 
 (Go where your heart believes)
 G  
  Freedom calls 
   Em G C Em D G 
 (Go to your destiny)

   C D G 
  Go where your heart believes

Breathe Tabs by Chiddy Bang

 A simple, cool and very chill guitar riff! 


e|-----5--5-----------13----------------|
B|--6--6--6------10h11----10------------|
G|--------7------10-------10------5--7--| Repeat forever 
D|---------------12-------12------------|
A|--------------------------------------|
E|--------------------------------------|

Enjoy!

Hard Habit To Break Chords – Chicago V3

 F# F# Ebm Ebm F# F# 
I guess I thought you'd be here forever
 Ebm Ebm 
Another illusion I chose to create
 B C# Ebm 
You don't know what you got until it's gone
 Abm F# E  
And I found out a little to late
 D E A A 
I was actin' as if you were lucky to have me
 F#m F#m     
Doin' you a favor (I hardly knew you were there)
                                              D 
                                             Then you were gone
        E F#m                                                
And it all was wrong
       Bm7 A G F G 
I had no idea how much I cared 
 C G / Em       
Bein' without you takes a lot of getting used to
 F ?                   
You should learn to live with it
 Fm Fm#7 Fm6 
 But I don't want to
 C Gsus G 
Bein' with out you all a big mistake
 F 
Instead of getting any easier, 
          Fm Fm#7 Fm6 
It's the hardest thing to take
      Gsus G 
I'm addicted to you, baby
        G# Bb C 
Your a Hard habit to break

You found someone else, you had every reason
You know I can't blame you for running to him
Two people together, but living alone
I was spreading my love to thin
After all these years, I'm still trying to shake it
Doin' much better (they say that it just takes time)
Deep in the night, it's an endless flight
And I can't get you out of my mind 
Bein' without you takes a lot of getting used to
You should learn to live with it, But I don't want to
Bein' without you is all a big mistake
Instead of getting any easier, it's the hardest thing to take
I'm addicted to you,babe
You're a Hard habit to break
                       
 G# A# Eb Fm7 Gsus G 
/ / / / / / / / / / / / / / / /
 G# A# Eb Fm7 Gsus G 
I   just can't go   on
 G# A# Eb Fm7 Gsus G 
I   just can't go  on

 F Fm Eb Ebm ......  Eb Bb C B Db Ab   
Bein' without you takes a lot of getting used to
 F#              
You should learn to live with it
 F#m F#m (#7)  F#m6 
 But I don't want    to
 Db                     Absus      Ab 
Bein' with out you is all a big mistake
 F# 
Instead of getting any easier
 F#M F#m (#7)  F#m6 
It's the hardest thing to take
 G#sus G# 
I'm addicted to you
          A B Dbm B 
You're a hard habit to break 
        A B Dbm B 
Such a hard habit to break
    G#sus            G# 
I'm addicted to you babe


Concert ending:
 A B     Dbmaj

Under My Breath Chords – Chester See

 I hope this is fairly accurate, it certainly seems to play okay on piano. 
Please all corrections in the comments, I will happily update this if you let me know. 
Try to only just touch the Gm in the verse and use it to jump to the Eb which is 
where you pause most of the time.
Enjoy!


---- INTRO ----

 Bb Dm/A Gm Eb Bb Bb Dm/A Gm Eb Bb 

---- VERSE ----

     Bb Dm/A Gm Eb Bb 
She comes, she goes, she let's me know
 Bb Dm/A Gm Eb Bb 
Just enough to make me lose control
 Bb Dm/A Gm Eb Bb 
She turns back it's not for me
      Bb Dm/A Gm Eb Bb 
It's just a part of her sympathy

---- CHORUS ----

          Eb Bb/D 
Yeah she goes
 F/C F 
Out of her way suddenly to say she doesn't know when
           Eb Bb/D 
To see me again I reply 
        F/C F 
That's fine by me I got plenty of things to do on my own
                  Eb Bb/D 
So I'll call you soon she says
   F/C F 
I had a good time so have a good night she gets in her car
                Eb Bb/D 
As soon as she leaves I say
  F/C (let chord ring)                                   
I love you I love you I love you I love you
                  Bb Dm/A Gm Eb 
Under my breath
                  Bb Dm/A Gm Eb 
Under my breath

---- VERSE ----

     Bb Dm/A Gm Eb Bb 
Her eyes and smile they speak the same (aaahhhhhaaaa)
     Bb Dm/A Gm Eb Bb 
But I've got no clue what they say (aaahhhhhaaaa)
 Bb Dm/A Gm Eb Bb 
She knows that when she says goodbye (aaahhhhhaaaa)
 Bb Dm/A Gm Eb Bb 
Or could it be that this is all in my mind

---- CHORUS ----

          Eb Bb/D 
Yeah she goes
 F/C F 
Out of her way simply to say she doesn't know when
           Eb Bb/D 
To see me again I reply 
        F/C F 
That's fine by me I got plenty of things to do on my own
                  Eb Bb/D 
So I'll call you soon she says
   F/C F 
I had a good time so have a good night she gets in her car
                Eb Bb/D 
As soon as she leaves I say
  F/C (let chord ring)                                   
I love you I love you I love you I love you
                  Bb Dm/A Gm Eb Bb 
Under my breath
                  Bb Dm/A Gm Eb Bb 
Under my breath

---- BRIDGE ----

 Gm F Eb 
  See I got a feeling she knows
 Gm    
  exactly why this song was composed
 Gm F Eb       
  she likes the attention and she wants to be
 Eb Bb/D F/C 
wrapped in somebodies arms but that somebody isn't me.

---- CHORUS ----

          Eb Bb/D 
Yeah she goes
 F/C F 
Out of her way simply to say she doesn't know when
          

Raw Real Tabs by Cherri Bomb V3

 Raw. Real. 
Cherri Bomb
This is the End of Control (2012)
Tabbed by Catherine

This tab is written for two guitars, one in dropped D tuning and one in standard tuning.

Verse

Guitar One:
e|--------------------------|
B|--------------------------|
G|--------------------------| 
D|-2--2--2--2--2--2--2--2---|
A|-2--2--2--2--2--2--2--2---|
D|-2--2--2--2--2--2--2--2---|

with this little part towards the end:
e|-----------------------------------------------|
B|-----------------------------------------------|
G|-12-12-11-12-12-11-12-12-11-12-12-11-12-12-11--|
D|-----------------------------------------------|
A|-----------------------------------------------|
D|-----------------------------------------------|

Guitar Two:
e|-----------------------------|
B|-----------------------------|
G|-----------------------------|  
D|-2--2--2--2--2--2--2--2-222--|
A|-2--2--2--2--2--2--2--2-222--|
E|-0--0--0--0--0--0--0--0-000--|

Chorus

Guitar One:
e|-----------------------------------------------|
B|-----------------------------------------------|
G|--555-5-5--------------------------------------|
D|--555-5-5---5-5-5-55--4-444444-----------------|
A|--333-3-3---5-5-5-55--5-555555-----------------|
D|------------5-5-5-55--4-444444--0-2-4-5-5-4-2--|

e|-----------------------------------------------|
B|-----------------------------------------------|
G|--55555555------------------------777----------|
D|--55555555--55555555--444-4-4-4---777-7-9------|
A|--33333333--55555555--555-5-5-5---555-7-9------|
D|------------55555555--444-4-4-4---000-7-9------|

e|-----------------------------------------------|
B|-----------------------------------------------|
G|--555-5-5--------------------------------------|
D|--555-5-5---5-5-5-55--4-44-4-0-0--9-99-777-----|
A|--333-3-3---5-5-5-55--5-55-5-0-0--9-99-777-----|
D|------------5-5-5-55--4-44-4-0-0--9-99-777-----|

e|-----------------------------------------------|
B|-----------------------------------------------|
G|--5-5-5-5--555557-9\---------------------------|
D|--5-5-5-5--555557-7\---------------------------|
A|--3-3-3-3--333335-7\---------------------------|
D|-----------------------------------------------|

Guitar Two:
e|---------------------------------------------------|
B|---------------------------------------------------|
G|-9-9-9--7--12-12-12--12--11-11-11--7--16-16-14-14--|
D|-x-x-x--x--x--x--x---x---x--x--x---x--x--x--x--x---|
A|-7-7-7--5--10-10-10--10--9--9--9---5--14-14-12-12--|
E|---------------------------------------------------|
e|-----------------------------------------------------|
B|-----------------------------------------------------|
G|--9-9-9--7--12-12-12--12--11-11-11--7---14-14-16-16--|
D|--x-x-x--x--x--x--x---x---x--x--x---x---x---x--x--x--|
A|--7-7-7--5--10-10-10--10--9--9--9---5---12-12-14-14--|
E|-----------------------------------------------------|

B|----------------------------------------------------|
G|--9-9-9--7--12-12-12--12--11-11-11--7--16-16-14-14--|
D|--x-x-x--x--x--x--x---x---x--x--x---x--x--x--x--x---|
A|--7-7-7--5--10-10-10--10--9--9--9---5--14-14-12-12--|
E|----------------------------------------------------|

e|-----------------------------------------------|
B|-----------------------------------------------|
G|--5-5-5-5--555557-9\---------------------------|
D|--5-5-5-5--555557-7\---------------------------|
A|--3-3-3-3--333335-7\---------------------------|
D|-----------------------------------------------|

Verse repeats

Chorus repeats

Bridge:

Guitar One:
e|-------------------------------------------------------|
B|-------------------------------------------------------|
G|-------------------------------------------------7-9^--|   x2
D|-----------7^----7-9-------------------7^----7-9-------|
A|-7--9-10------10-----9-9-9^--7--9-10------10-----------|
D|---------10--------------------------10----------------|

e|-----------------------

Tell Me Everything Tabs by Cheap Trick

 ----------------------------------------------------------------------------
                             Tell Me Everything-Cheap Trick
----------------------------------------------------------------------------
Tabbed by: Nick 
E-mail:BlindTerry333@gmail.com

Tuning:EADGBE 
From the 1994 "Woke Up With A Monster"
T. Petersson, R. Nielsen, R. Zander, Michael McDonald, Julian Raymond

Intro


E (repeats until chord change)    A

e|----0----------0-------0-------------5----------5---------5---------------|
B|------5------5---5---5-----------------5-----5----5----5------------------|
G|---------4---------4------4---------------6----------6--------------------|
D|--------------------------------------------------------------------------|
A|--------------------------------------------------------------------------|
E|--------------------------------------------------------------------------|

I think playing the A sounds better as the xxx655 but there's a few ways so pick 
whichever one you dig most.


Cool bass line at the beginning and throughout the song...

e|--------------------------------------------------------------------------|
B|--------------------------------------------------------------------------|
G|--------------------------------------------------------------------------|
D|--------9----11----9----------7-------------------------------------------|
A|--7/11-----------------9--11------11--------------------------------------|
E|--------------------------------------------------------------------------|


Verse-

E                                     A                 E
If I could have what I want I'll just want what I've got 
                                         A                 E
I told myself a million times that's the truth but it's not 
                                         A             E
I could give you some lessons on how to cry all night 
                                          A               E
I know the hurting's only started and it might never stop 

Pre-Chorus

B            F#             A
Oh, Angeline, you want some help from me now 
Asus                        B
Now since he left you alone. 
                       F#
Don't say it ain't so, 'cause you traded me for him
A           Asus A
Not so long ago 

Chorus-

E                       A Asus A
You were everything to me 
E                       A Asus A
You were everything to me 
E                          A
I don't know why but your pain
                       B
Is such a pleasure to see 
A                        E
So baby tell me everything. 

Bridge-

A
I guess you never thought that you'd be falling in love 
You've lost everything that you're dreaming of 
B                                   A        E
I can't let you go without letting you know 

E                       A Asus A
You were everything to me 
E                       A Asus A
You were everything to me 
E                           A
I don't know why but your pain 
                      B 
Is such a pleasure to see
A                       E
So baby tell me everything

I Wonder In Whose Arms Chords – Chas And Dave

 F C 
I wonder in whose arms you are tonight
      C F 
I wonder does he think he's doing alright
  D G 
I don't really care but still I wonder
 G C 
Just how long he takes to see the light

       F C 
I wonder if you use the same old lines
         C F 
The ones you used to whisper all the time
  D G 
Please believe me I ain't sorry that I lost you
              F C F 
But I wonder in whose arms you are tonight

Yakap Chords – Charice

 The whole Song's Chords are 
 E B C#m A C#m A B 


Ako ay nagbalik
Sa init ng iyong yakap
Parang ibong sabik sa isang pugad

Nadanas kong lungkot
Nang kita'y aking iwan
Na di pa dinanas ng sinuman

Ako ay nagbalik
At muli kang nasilayan
Hindi na 'ko muli pang lilisan
Dahil kung ikaw ang yakap ko
Parang yakap ko ang langit
At yakap ko pati ang iyong ngiti

Init ng 'yong halik
Wala ng kasing init
Yakap pa rin nito yaring isip

Ako ay nagbalik at muli kang nasilayan
Hindi na 'ko muli pang lilisan
Dahil kung ikaw ang yakap ko
Parang yakap ko ang langit
At yakap ko pati
Ang 'yong ngiti...

At muli kang nasilayan
Hindi na ko muli pang lilisan
Dahil kung ikaw ang yakap ko
Parang yakap ko ang langit
At yakap ko pati ang yong ngiti

Song For Mama Chords – Charice

 Song For Mama
Charice Pempengco
Tabbed by: naguenyong vinx

   Intro:  B - F# - E -; (4x)

   B 
   You taught me everything
               F# E 
   And everything you've given me

   I'll always keep it inside
   B F# E 
   You're the driving force in my life, yeah
   B 
   There isn't anything
        F# E 
   Or anyone that I can be

   And it just wouldn't feel right
   B F# E 
   If I didn't have you by my side

             C#m 
   You were there for me
              B 
   To love and care for me
          F# 
   When skies were grey
             C#m 
   Whenever I was down
                B F# 
   You were always there to comfort me
                C#m 
   And no one else can be
              B 
   What you have been to me
           F# 
   You'll always be
                B 
   You will always be the girl
            A  pause
   In my life for all times

              Chorus
      B F# 
   Mama, Mama you know I love you
    Eb7 
   Oh you know I love you
   G#m F# F#m7 , B7 E 
   Mama, Mama you're the queen of my heart
         Eb7 G#m 
   Your love is like tears from the stars
     F# F#m7 , B7 E 
   Mama I just want you to know
     F# B 
   Lovin' you is like food to my soul

   Interlude:  B - F# - E -; (2x)

    B 
   You're always there for me
            F# 
   Have always been around for me
     E 
   Even when I was bad
      B F# E 
   You showed me right from my wrong

   (Yes you did)
    B 
   And you took up for me
      F# 
   When everyone was downin' me
     E 
   You always did understand
    B F# E 
   You gave me strength to go on

             C#m 
   There was so many times
             B F# 
   Looking back when I was so afraid
                 C#m B 
   And then you come to me and say
        F#               
   I can face anything
               C#m 
   And no one else can do
                  B 
   What you have done for me
         F# 
   You'll always be
              B 
   You will always be
                     A 
   The girl in my life

   (Repeat Chorus except last word)

                 G#m 
           ... soul

     F#m B E 
    Never gonna go a day without you
     Eb7 C#m 
    Fill's me up just thinking about you
           F# B 
    I'll never go a day without my mama

   (Repeat Chorus except last line)

     F#                             
    Lovin' you is like food to my soul
                                    B 
    Lovin' you is like food to my soul

    Coda:  E - F# - B -;
           E - F# - B - E

It Can Only Get Better Chords – Charice

 It Can Only Get Better
Charice Pempengco
Tabbed By: naguenyong vinx

   E B C#m - B -
   Let the sun refuse to shine
   A G#m F#m B       
   It won't be long before the days are brighter
   E G#m C#m B    
   If every step's an uphill climb, oh hoh hoh
   A G#m F#m B 
   Carry on until they feel much lighter
   A G#m F#m C#m 
   For all the clouds up in the sky, hoh
   A G#m F#m 
   For all the teardrops in our eyes

             Chorus
        B                 
   It can only get better
   E G#m A 
   Be still my heart
                         E 
   It can only get better
           G#m A 
   We've come this far
                        F#m 
   It can only get better
                G#m 
   I know it hurts
   A B 
   For what it's worth
                        E 
   It can only get better

   E B C#m - C#m7 / B 
   If he should ever come our way
   A G#m F#m B     
   Dry the tears and look somewhere above him
   E G#m C#m C#m7/B 
   Might be easier to say than do
   A G#m F#m B       
   But just pretend that you no longer love him
   A G#m F#m C#m 
   When your back's against the ropes, hoh
   A G#m F#m 
   When you miss someone the most

   (Repeat Chorus)

   Adlib:  E - G#m - A -; (2x)

   F#m G#m 
   I know it hurts
   A B 
   For what it's worth
                        E - A -
   It can only get better
                        E - A -  
   It can only get better, hah
   F#m G#m 
   I know it hurts
   A B 
   For what it's worth
                        E - A - E - A -
   It can only get better
                        E - A - E - A - E 
   It can only get better