Month: August 2013

Shake Shake Chords – Chad Sugg

 Chad Sugg
"Shake Shake"
From the LP, "Was"

Standard Tuning

CHORDS
E------1---3-----------|
B--1---1---3-----------|
G--0---2---0-----------|
D--2---3---0-----------|
A--3---3---2-----------|
E------1---3-----------|
    C F G 


INTRO
 C F G 


VERSE

 C F G C F                   
I, I think I'm ready

    G C F G C F G 
To be something more than just friends

(Continue that strum pattern throughout rest of verse)



CHORUS

        F G C G 
I'll bring my guitar, you take the tambourine

   F C G C 
Shake shake, it's just what you do to me

 F C G C       
Oh, I think I'm falling in love

 F C G C F G 
Oh, I think I'm falling in love with you


(Repeat chord patterns above for verse & chorus throughout rest of song)


OUTRO
 C F 
These days I just don't make sense to me

 C F 
This modern love, it's a new kind of lonely

Killing Me Softly Chords – Chad Sugg

 Chad Sugg
"Killing Me Softly"
From the LP, "Lost Boy"

Standard Tuning

CHORDS
E----------------------|
B--1---1---1-----------|
G--0---0---2-----------|
D--2---0---2-----------|
A--3---2---0-----------|
E----------------------|
    C E/C Am 


INTRO
 C E/C Am 


VERSE

 C                                         
All my friends are going crazy

                            E/C Am 
Am I the only one here who thinks the waiting is the worst part

(Continue that pattern throughout rest of verse)



CHORUS

 C 
Spin me, like a record

                            E/C Am 
Move me, like a slow song, baby

 C 
Hurt me, like a bad dream

                            Am 
You can bet I got what you need




Bridge

 C 
I know I'm gonna regret this

     E/C Am 
But I just have to say you look well

 E/C 
Why do I do this to myself

Tonight Chords – Catching The Fallen

 Words and Music by Adam Jensen

Verse 1
               Am F 
Theres a battle raging for our lives
       G E 
And the enemys got a string of lies
                Am F 
That hes ready to plant in our minds
                  G E Am F G E 
Trying to turn our hearts so we start the fight Tonight

Pre-Chorus
                 Am F 
Well hes strategizing, to start terrorizing
       G E 
So with darkness rising, we make it right
 Am F G 
Tonight

Verse 2
Theres a warrior nation willing to fight
A generation will lift their cry
We wont be stopped cause we will fight
Well press on forward and fight the fight Tonight

Chorus (Half Time)
 Am F G Em 
Tonight we will fight   for our generation well give our lives
 Am F G Em 
To bring forth the light        the light of Christ to the Dark outside


Bridge
         Am F G Em 
Cause we were made to live outside, outside ourselves as the voice of Christ
 Am F G Em 
To the ones given up on life, it is for them that we will fight

Tag (Double Time)
              Am 
And we dedicate ourselves to Christ
        F 
But we werent made to live inside no
 G 
This is for more than just our lives
 E 
We fight for the ones outside

Bridge 2
         Am 
For the life of Christ to the dead inside
 F 
And his hope to the broken life
     G 
It is for them that we will fight
 Em 
WE WILL FIGHT

Destruction And Hate intro Tabs by Casualties

 This is just the intro because the rest of the song is already tabbed.
      
      Early years version
e|---------------------------|
B|---------------------------|
G|---------------------------|
D|-------------9-----7-6-----|
A|--------7---7----------9-7-|
E|-7-6-5---------7-5---------|
 
         That's it... pretty fuckin' easy.

Easier To Lie Chords – Cassadee Pope

 Song Title: Easier To Lie
Artist: Cassadee Pope

Submitter: enochjchuang
Original song: http://www.youtube.com/watch?v=9xYU8H0CgNQ
email: enochjchuang@gmail.com
twitter: @enochjchuang


Tuning: Standard
Capo 3

intro
 G Bm   
La la laaaa.
 G Bm 
La la laaaa.
 G Bm A 
La la laaaaaa.
Verse
 G A 
Sneaking out the bedroom, cursin'
 D Bm 
Trippin' on his stuff.
 G A D Bm 
Lookin' for my car keys while i'm pullin my jeans up.
 G A D Bm 
I make sure i'm out before, I turn my phone back on.
          G A 
I've got 5 missed calls.
 G A 
Can't believe what I just did
   D Bm 
I lost myself tonight.
 G A 
I just gotta get to you
     D Bm 
The guilt's makin' me dry.
  G A 
I stumble in, I wake you up.
 D Bm 
Then, you look at me.
  G A 
I just can't speak.
                 G A 
Cause you're the only one, the only one
     D Bm 
who ever gave a damn.
          G A 
And it's killin' me to know you think
        D Bm 
you're better then I am.
      G A  
Came over here to tell the truth,
     D Bm 
but lookin' in your eyes..
       G A Bm 
Baby, sometimes it's easier to lie.
     G A 
You know that i've been cryin',
        D Bm    
so you ask what's goin' on.
     G A 
Your arms around my shoulder,
            D Bm  
you've got no clue what i've done.
       G A   
Cause you don't see the guilt in me,
      D Bm 
and that just makes it worse.
                 G A 
Yeah, that just makes it worse.

Chorus

 G Bm 
La la laaaa.
 G Bm 
La la laaaa (oh oh ohh)
 G Bm     
La la laaaaaa
 A 
It's easier to lie.

 G Bm   
La la laaaa (Whoa)
 G Bm 
La la laaaa (It's so easy)
 G Bm A 
La la laaaaaa.

 G A 
Can't believe what I just did,
   D Bm 
I lost myself tonight.


chorus x2

Typical Tabs by Cartel V3

 This tab was done by ear using the iOS app amplitude in which I activated the “No Voice” 
option which quiets the vocals and amplifies one of the guitar parts. If you have any 
fixes please email me @ lignimvite@gmail.com
Thanks and please rate 5 stars!

\   Slide down
PM- Palm mute (notes with – under then are the only ones muted)
x_  Play chord/section x amount of times
~   Sustain

Song:  Typical
Band:  Cartel
Album: Cycles

        Verse 1
E|-------------------------------------------|
B|-------------------------------------------|
G|-9-9--9-9------------------11-11--13-13----|
D|-x-x--x-x-x6---------------x--x---x--x-----| x2
A|-7-7--7-7----11-11--11-11--9--9---11-11----|
E|-------------9--9---9--9-------------------|

E|----------------|
B|----------------|
G|-9-9--9-9-------|
D|-x-x--x-x-x2----|
A|-7-7--7-7-------|
E|----------------|

        Pre-Chorus
E|------------------------------------------------------------------|
B|------------------------------------------------------------------|
G|------------------------------------------------------------------|
D|-11-11--11-11-7-7--7-7--2-2--2-2--2-2--2-2------------------------|
A|-11-11--11-11-7-7--7-7--2-2--2-2--2-2--2-2------------------------|
E|-9--9---9--9--5-5--5-5--0-0--0-0--0-0--0-0------------------------|

E|----------------------------------------------------------|
B|----------------------------------------------------------|
G|----------------------------------------------------------|
D|-11-11--11-11-7-7--7-7--9-9-999999-9----------------------|
A|-11-11--11-11-7-7--7-7--9-9-999999-9----------------------|
E|-9--9---9--9--5-5--5-5--7-7-777777-7----------------------|
                PM------------------------------------------|
        Chorus
E|------------------------------|
B|------------------------------|
G|-9-------6---7-7-7------------|
D|-9x8-7---6x8-7-7-7--7-7-7-----| x2
A|-7---7x8-4---5-5-5--7-7-7-----|
E|-----5--------------5-5-5-----|

        Verse 2
E|---------------------------------------|
B|---------------------------------------|
G|-9-9--9-9------------------------------|
D|-x-x--x-x-x6---------------7-7--9-9----|
A|-7-7--7-7----11-11--11-11--5-5--7-7----|
E|-------------9--9---9--9---------------|

E|-------------------------------------------|
B|-------------------------------------------|
G|-9-9--9-9------------------11-11--13-13----|
D|-x-x--x-x-x6---------------x--x---x--x-----| x2
A|-7-7--7-7----11-11--11-11--9--9---11-11----|
E|-------------9--9---9--9-------------------|

E|----------------|
B|----------------|
G|-9-9--9-9-------|
D|-x-x--x-x-x2----|
A|-7-7--7-7-------|
E|----------------|

        Pre-Chorus
E|------------------------------------------------------------------|
B|------------------------------------------------------------------|
G|------------------------------------------------------------------|
D|-11-11--11-11-7-7--7-7--2-2--2-2--2-2--2-2------------------------|
A|-11-11--11-11-7-7--7-7--2-2--2-2--2-2--2-2------------------------|
E|-9--9---9--9--5-5--5-5--0-0--0-0--0-0--0-0------------------------|

E|----------------------------------------------------------|
B|----------------------------------------------------------|
G|----------------------------------------------------------|
D|-11-11--11-11-7-7--7-7--9-9-999999-9----------------------|
A|-11-11--11-11-7-7--7-7--9-9-999999-9----------------------|
E|-9--9---9--9--5-5--5-5--7-7-777777-7----------------------|
                PM------------------------------------------|
        Chorus 2
E|------------------------------|
B|------------------------------|
G|-9-------6---7-7-7------------|
D|-9x8-7---6x8-7-7-7--7-7-7-----| x4
A|-7---7x8-4---5-5-5--7-7-7-----|
E|-----5--------------5-5-5-----|

        Bridge
E|---------------------------------------------------------------------------|
B|----------------------------------------------------------------

Before He Cheats Chords – Carrie Underwood V7

 Em G C B7 D 
e--0---3--0--2---2--|
b--0---0--1--0---3--|
g--0---0--0--2---2--|
d--2---0--2--1---0--|
a--2---2--3--2---/--|
e--0---3--0--0---/--|


 Em G C B7  (x2)

 Em G 
 Right now he's probably slow dancing with a
 C B7 
Beach-blonde tramp and she's probably getting frisky
 Em G 
 Right now he's probably buying her some
 C B7 
Fruity little drink 'cause she can't shoot whiskey
 Em G C 
 Right now he's probably up behind her with a pool stick
             B7 C 
Showing her how to shoot a combo
 C B7  (2)
 And he don't know

Chorus:
        C Em 
That I dug my key into the side of his
 C Em 
Pretty little souped up 4-wheel drive
 C Em B7  (2)
Carved my name into his leather seats
          C Em 
I took a Louisville slugger to both headlights
 C Em 
Slashed a hole in all four tires
 C B7 Em 
Maybe next time he'll think before he cheats


 Em G 
 Right now she's probably up singing some
 C B7 
White-trash version of Shania kareoke
 Em G 
 Right now she's probably saying "I'm drunk"
 C B7 
 And he's a-thinking that he's gonna get a-lucky
 Em G 
 Right now he's probably dabbing on three 
 C B7 C 
Dollars worth of that bathroom Polo
 C B7  (2)
 And he don't know

Chorus

 G D C  (2)
 I might have saved a little trouble for the next girl
            C  (2)                      B7  (2)
'Cause the next time that he cheats
                            Em D C D 
Ohh you know it won't be on me
               Em D C D 
Ohh not on me

Chorus

     C D  (tacet)       Em D C 
Ohh maybe next time he'll think before he cheats
    D C  (2)    B7  (2)     Em .
Ohh before he cheats

Curiosity Tabs by Camel

                                           Artist - Camel
                                         ****************
                                         Song - Curiosity
                                        ******************
                                          Album - Camel
                                         ***************
                                       Tabbed By - Ayreon77
                                      **********************


Bass Intro
***********
-------------------------------------------

Clean Guitar
00:08                                    
[-----------------|----------|----------]
[-15----15--------|----------|----------] 
[-----------15-14-|-15-14-12-|-14-15-12-]  
[-----------------|----------|----------]  
[-----------------|----------|----------] 
[-----------------|----------|----------]X2


00:41
[-----------------------|---------------------------]
[-----------------------|---------------------------]
[---------s-------------|--------s--s--s--------h---]
[-----7-8/10-8-7----8---|-----7-8/10/12/10-8-8-8-10-]
[-10-------------10---8-|-10------------------------]
[-----------------------|---------------------------]


[----------------------------|---------------------------]
[----------------------------|---------------------------]
[--------s----h--p-s---------|--------s--s--s--------h---]
[-----7-8/10-8-10-8/7----8---|-----7-8/10/12/10-8-8-8-10-]
[-10------------------10---8-|-10------------------------]
[----------------------------|---------------------------]


-------------------------------------------
VERSE 1                    [-----------------|-------------]
********                   [-----------------|-------------]
Sail, sail away,           [------7-10-7-----|------7-8----]
There you go.              [----8--------8-7-|-8-10-----10-]
Why not let me come along, [-10--------------|-------------]
I won't tell no one.       [-----------------|-------------]X2


-------------------------------------------
Small Solo
***********
01:10
[-----------------------|-------------h--p------]
[-------------h--p------|-------15-13--15-13----]
[-12----15-14--15-14-12-|-15-12--------------15-]
[----12-----------------|-----------------------]
[-----------------------|-----------------------]
[-----------------------|-----------------------]


-------------------------------------------
VERSE 2                       [-----------------|-------------]
********                      [-----------------|-------------]
Now our bodies have entwined, [------7-10-7-----|------7-8----]
Touch me with your mind.      [----8--------8-7-|-8-10-----10-]
Your dreams are a mystery,    [-10--------------|-------------]
Please share them with me.    [-----------------|-------------]X2



-------------------------------------------
CHORUS
*******
Curiosity is killing me,
I just got to know.
Curiosity is killing me,
I just got to know 

Play this with the CHORUS
[-----------------------|-------------|-----------------------|-----------]
[-----------------------|--------h----|-----------------------|-----------]
[-----------------------|-----3-3-5---|-----------------------|-----3-----]
[-----------------------|-3-5-------5-|-----------------------|-3-5---3-5-]
[-10-10-8-8-7--8-10-----|-------------|-10-10-8-8-7--8-10-----|-----------]
[-------------------6-8-|-------------|-------------------6-8-|-----------]



-------------------------------------------
BRIDGE
*******
Where, tell me where,
Where are you sailing.


-------------------------------------------
02:01 
GUITAR SOLO
************

[-b--b---b---h-p--------|--------3--p-------------|-----3---b-b-]
[-8--8---8--6-8-6-----6-|---b-b----6-3--brp---b---|-b-3---3-6-6-]
[-----------------7-7---|-5-------------5--3--5-3-|-5-----------]
[-----------------------|-------------------------|-------------]
[-----------------------|----------------

Who Are You Feat Olivier Daysoul Chords – C2c

 Dm ,  F ,  Bb ,  Gm ,  C 

La la la
La la la
 
 Dm F 
I feel like a pimp
             Bb 
Another man in the middle
              Gm C 
It's already rope
 Dm F 
I know there's a light at the end
          Bb Gm C 
But the tunnel seems so narrow
 

Trying to find my way but my shoes are feeling heavy
They say I'm always dragging my feet
Now the world is pleasure faster you can get it
So I'm left behind before I can reach
Before I can reach, yeah
 
 
Make me the life who you save
It's getting harder everyday, for you!
Pressure to find love, darling
But I'm trying to find a way, for you!
Life isn't as long as you think
It just passes in your way, for you!
Time is finally you
And you never makes me the same, for you!
 
 
Who are you
Lalala
 
 
Surrounded, oh it sinks a part in the havisation of your soul
But just cause you like the way it looks don't mean there's no in the
Don't mean there's no in the future
Now it's back composed and I'm not in a hurry
Could you say that in a few it is time
Before you even blink
The day is to the night
And the ball would drop for the 13th time
Do you wondering why?
Yeah, yeah
 
 
I'm making a move
One time over base the rules
Don't wanna be stack in this tale
I'ma never is tell what you sing is close the Dumbo
Compose the faith and all the things
And sing things to favor us, to test all things
Gotta be move in a dream, I know!
Sometimes I could be slow and end the rest of the thing
For rest the show no better have a shuffle on my ever refrain
 
 
Get back on a bike
Better lim hard, I generally like
Wanna be soft, favor the world
Begin example to all the boys and girls
 
 
Make me the life who you save
It's getting harder everyday, for you!
Pressure to find love, darling
But I'm trying to find a way, for you!
Life isn't as long as you think
It just passes in your way, for you!
Time is finally you
And you never makes me the same, for you!
 
 
Make me the life who you save
It's getting harder everyday, for you!
Pressure to find love, darling
But I'm trying to find a way, for you!
Life isn't as long as you think
It just passes in your way, for you!
Time is finally you
And you never makes me the same, for you!
 
 
Who are you?
 
 
Make me the life who you save
It's getting harder everyday, for you!
Pressure to find love, darling
Life isn't as long as you think
It just passes in your way, for you!
Time is finally you
And you never makes me the same, for you!

When I Was Your Man Chords – Bruno Mars V9

                ________                            __________
               ||INFO||                            ||CHORDS||
×~~~~~~~~~~~~~~~~~~~~~~~~~~~~~~~~~~~~×       ×====================×
| Tabbed By : Setiawan Dwi Rakhmadi  |       || Relative to Capo ||
| E-mail    : Stiwrakhmadi@gmail.com |       ||------------------||
|------------------------------------|       ||  A/C#     - X42220 ||
| Song      : When I Was Your Man    |       ||  Bsus2/A  - X0442X ||
| Artist    : Bruno Mars             |       ||  E7       - 02203X ||
| Album     : Unorthodox Jukebox     |       ||  E/G#     - 42210X ||
| Released  : January 15, 2013       |       ||  E/G#     - 4XX100 ||
×~~~~~~~~~~~~~~~~~~~~~~~~~~~~~~~~~~~~×       ||  Bsus2    - X2442X ||
                                             ||  E/B      - X22100 ||
                                             ||  C#m/G#   - 4X6654 ||
          _________________                  ||  Esus4    - 02220X ||
          ||TUNING & CAPO||                  ||  F#m/C#   - X44222 ||
       ×=====================×               ||  B7       - X24242 ||
       || Tuning : Standard ||               ||  D/A      - X0X232 ||
       || Capo   : 3rd Fret ||               ||  Dm6/B    - X2X201 ||
       ×=====================×               ||  Asus4    - X02230 ||
                                             ×====================×

# This is a good song, Please vote it if you like my version :D
# Chords in brackets are optional to play.
# I'm not very sure about the intro.

'×~~~~~~~~~~~~~~~~~~~~~~~~~~~~~~~~~~~~~~~~~~~~~~~~~~~~~~~~~~~~~~~×'


×-----×
|Intro|
×-----×

e||-------|-------|-------|-----------|
B||---0---|---0---|-------|----0-2----|
G||---2---|---4---|---2---|--2-----4--|
D||-------|-------|---2---|-----------|
A||---2---|---2---|---0---|-----------|
E||-------|-------|-------|-----------|

   -------|-------|-------|-----------||
   -------|---0---|-------|-2---2-----||
   ---2---|-------|---2---|---4---4-4-||
   -------|-------|---2---|---------2-||
   ---0---|---2---|---0---|---------2-||
   -------|-------|-------|-----------||


×-------×
|Verse 1|
×-------×

 F#m A/C# Bm         ( Bsus2/A )
   Same bed, but it feels just a little bit bigger now
  E                 ( E7 )                     A E/G# 
   Our song on the radio, but it don't sound the same
 F#m A/C# Bm           ( Bsus2 )
   When our friends talk about you all it does is just tear me down
  E E/B A 
   Cause my heart breaks a little when I hear your name


×----------×
|Pre-Chorus|
×----------×

       E/G# F#m C#m/G# 
   It all just sounds like ooh, ooh, oooh, hoo~
      G Esus4 
   Mmm too young, too dumb to realize


×------×
|Chorus|
×------×

         E (hold)                    Bm7 E A 
   That I should've bought you flowers.. and held your hand
                             Bm7 E A 
   Shoulda gave you all my hours.. when I had the chance
                       Bm7 E F#m/C# 
   Take you to every party cause all you wanted to do was dance
      B7 D/A Dm6/B A ...
   Now my baby's dancing, but she's dancing with another man


×---------×
|Interlude|
×---------×

 A ...  Asus4 A E/G# 


×-------×
|Verse 2|
×-------×

 F#m A/C# <sp

Ill Be There Chords – Glengarry Bhoys

 As far as I can tell, this song is in the key of F Major. And the chords are all 
Major unless otherwise noted.

 F Bb C F Bb C 
When I close my eyes, I suddenly realize
 Dm Am (1inv.)   E Bb  
There's no place on earth, I'd rather be
 F Bb C 
Than lying, by your side

This pattern repeats throughout the rest of the song. If you think that there is 
an error, please feel free to email me to change it. By the way, the (1inv.) means 
first inversion, that the E is played in the bass, and the A and C are played in the treble.

Where Is My Mind solo Tabs by Yoav

 Artist: Yoav
Music:Where Is My Mind Feat Emily Browning


SOLO:

|--------------------------------------------------------------------------|
|----13-13-13-13-13--11--8--------7--7--8---------13-13-13-13-13--11--8----|
|--------------------------------------------------------------------------|
|--------------------------------------------------------------------------|
|--------------------------------------------------------------------------|
|--------------------------------------------------------------------------|

|--------------------------------------------------------------------------|
|----7--7--6---------13-13-13-13-13--11--8--------7--7--7/11---------13-13-|
|--------------------------------------------------------------------------|
|--------------------------------------------------------------------------|
|--------------------------------------------------------------------------|
|--------------------------------------------------------------------------|

|--------------------------------------------------------------------------|
|13-13-13--11--8--------7--7--6--4-----------------------------------------|
|--------------------------------------------------------------------------|
|--------------------------------------------------------------------------|
|--------------------------------------------------------------------------|
|--------------------------------------------------------------------------|

Surface Of The Sun Chords – Yellowcard

 Yellowcard
Surface Of The Sun
Southern Air
2012 Hopeless Records
Submitted by: jeremyunderground41@yahoo.com

Key:  G 

Tuning: Standard EADGBe

Chords used:
 G  -    320033
 D  -    xx0232
 Em  -   022000
 C  -    x32010
 D/F#  - 2x023x
 Am  -   x02210
 Bm  -   x24432


Intro: C--D-- x2


Verse 1:
 Em 
  This is a story full
    G D 
of restless nights
 Em 
  Of do or do not cause
       G D 
there is no try
 Em 
  Across a decade we flew 
 G D 
high and we fell low
 Em 
  And getting up when we're
         G D 
dragged down is all we've known


Chorus 1:
 Em 
  We were born to
        C 
be the ones
To show the faithless
            D 
what we've done
And there's a 
fire inside
 Em 
  We were born to 
        C 
be the ones
To show the faithless
            G 
what we've done
And there's a 
fire inside
 D 
  It burns like the
                C D C D 
surface of the sun


Verse 2:
 Em 
  Here in this Angel 
      G D 
City lights will shine
(lights will shine)
 Em D/F# G 
  And for a while we 
 Am C 
let ourselves go
 D 
blind (but now we know)
 Em 
  But now we know who 
           G D 
loves and loves us not
 Em 
  And they're worth every
            G D 
good thing we have lost
 C--
(Oooh!)


Chorus 2:
 Em 
  We were born to
        C 
be the ones
To show the faithless
            D 
what we've done
And there's a 
fire inside
 Em 
  We were born to 
 Bm C 
be the ones
To show the faithless
            G 
what we've done
And there's a 
fire inside
 D 
  It burns like the
                Em Bm C 
surface of the sun
We were born to
        G D 
be the ones
And burn like the 
                Em Bm C 
surface of the sun
(Oooh!)
To show the faithless 
            G D 
what we've done
(Oooh!)
And burn like the  
surface of the sun


Interldue: Am--Bm-C-G-Em--D/F#-G-D- x2


Bridge:
 C 
  And all the
million
          D/F# 
miles to go
 C 
  Not over yet
          D 
not even close


Chorus 3:
 Em 
  We were born to
        C 
be the ones
To show the faithless
            D 
what we've done
And there's a 
fire inside
 Em 
  We were born to 
 Bm C 
be the ones
To show the faithless
            G 
what we've done
And there's a 
fire inside
 D 
  It burns like the
                Em Bm C 
surface of the sun
We were born to
        G D 
be the ones
And burn like the 
                Em Bm C 
surface of the sun
(Oooh!)
To show the faithless 
            G D 
what we've done
(Oooh!)
And burn like the
                C D C D (Hold)
surface of the sun

Awakening Chords – Yellowcard V2

 Yellowcard
Awakening
Southern Air
2012 Hopeless Records
Submitted by: jeremyunderground41@yahoo.com

Key:  E 

Tuning: Standard EADGBe

Chords used:
 E  -     022100
 B  -     x24442
 C#m  -   x46654
 A  -     x02220
 F#m  -   244222
 E/G#  -  476xxx
 G#m  -   466444
 B/Eb  -  x698xx


Chorus 1:
 E B/Eb 
  Bottoms up tonight
                    C#m 
I drink to you and I
                B/Eb 
cause with the morning
comes the rest of my life
 E B/Eb 
  and with this empty glass
                  C#m 
I will break the past
                B/Eb 
cause with the morning
I can open my eyes
 A 
  I want this to
 B      (hold)    E - B/Eb - C#m - B/Eb - x2
be my awakening


Verse 1:
 E 
  I give this one to you
           G#m C#m 
an anthem full of truth

I tell you now an epic tail 
    E/G# A E 
of what you put me through
And even though you don't
             G#m C#m 
deserve one of your own
A melody a song about
     E/G# A B 
the life that you let go
           A 
I can't believe that I
still care enough to write


Chorus 2:
 E B/Eb 
  Bottoms up tonight
                    C#m 
I drink to you and I
                B/Eb 
cause with the morning
comes the rest of my life
 E B/Eb 
  and with this empty glass
                  C#m 
I will break the past
                B/Eb 
cause with the morning
I can open my eyes
 A 
  I want this to
 B      (hold)    E - B/Eb - C#m - B/Eb -
be my awakening


Verse 2:
 E 
  Yes I miss you still
              B/Eb C#m 
And probably always will
I'm living with a busted 
            E/G# A E 
heart that I will have until
 E B/Eb 
  I find the strength I know 
 B C#m 
  its somewhere in my bones
So pull the curtain up again 
     E/G# A B 
and get on with this show
              A 
At least you know that
I still care enough to write


Chorus 3:
 E B/Eb 
  Bottoms up tonight
                    C#m 
I drink to you and I
                B/Eb 
cause with the morning
comes the rest of my life
 E B/Eb 
  and with this empty glass
                  C#m 
I will break the past
                B/Eb 
cause with the morning
I can open my eyes
 A B 
  And maybe I will see
                  C#m 
a different destiny
Like maybe knowing you 
    B/Eb B A 
at all was only a bad dream
                B 
I want this to be my awakening


Bridge:
 C#m 
   No rest for the
 B A B 
wicked they say
 C#m 
   Forgive me if
 B A B 
I try to change
 C#m 
   No rest for the
 B A B 
wicked they say
 C#m 
   Forgive me if
 B A B 
I try to change


Chorus 4:
 E B/Eb 
  Bottoms up tonight
                    C#m 
I drink to you and I
       

Segundo Chords – Yael Yuzon

 Segundo – Yael Yuzon


Intro:  Bb  -  Eb  -  Gm  -  F Bb  -  Eb  -  Gm  -  F Bb  -  Eb  -  Gm  -  F Bb  -  Eb  -  Gm  -  F  -  Cm  -  Eb 


Verse I:

             Bb F Cm Eb 

parang butil ng buhangin di gaanong napapansin

         Bb F Cm Eb 

pag inipon ang tinapon ay panghihinayangan din

        Gm C Am Dm     

palibhasa nakatunganga huli na ng naisip ko

         Gm Eb F  ----------  Eb 

ang inaaksaya ko pala ay halagang ginto


Chorus:

                 Bb Eb F Gm 

walumpu’t anim na libo apat na raan

        Eb F Bb 

ang nasa palad ko

                 Bb Eb F Gm 

walumpu’t anim na libo apat na raan

         Eb F Bb 

pano ko gagamitin to  

             Gm C 

parang hangin dumaan at naglaho

                  Gm C 

salamat sa diyos bukas may panibago

                  Bb Eb F Gm 

walumpu’t anim na libo apat na raang segundo

         Eb F Bb 

di ko na sasayangin to


(play Intro)


Verse II:

           Bb F 

bakit minsan parang kulang

                   Cm Eb 

minsan ang bagal ng takbo

            Bb F (stop)

pwede ba na huminto lang

              Cm Eb 

sa sandaling masaya ako

               Gm C 

ang oras ay mainipin

         Am Dm Gm 

di marunong maghintay

           Cm Eb F 

kungpalalampasin baka di na makasabay


(Chorus)

Bridge:

 F# F 

parang salitang matalim na nasabi

 F# F 

kahit na magsisi ay hindi na mabawi

 F# F Ab Bb 

oras na lumipas ay di na babalik muli

 F# F 

parang salitang matalim na nasabi

 F# F 

kahit na magsisi ay hindi na mabawi

 F# F Ab Bb 

oras na lumipas ay di na babalik muli

drumbeat

walumpu’t anim na libo apat na raan

na nasa palad ko


(Chorus)

A Gate Through Bloodstained Mirrors intro Tabs by Xasthur

 This plays 4 times at the beginning and at other parts in the song.
These are just the chords... which I really do not know the names of being that Scott 
Conner uses some very strange chords.
Figure out the rhythm yourself.

eb|-----------------------------------|
Bb|--0----3----3---------6----6----6--|
Gb|--4----4----5----5----5----6----5--|
Db|--2----2----2----3----3----3----3--|
Ab|--0----0----0----3----3----3----3--|
Eb|-----------------------------------|

I could very well be missing the changes into the chords, but this is close to how I 
heard the song.

Let It Be Known Chords – Worship Central V2

 CAPO 4

INTRO:
 F Am F Am G   x2

VERSE 1:
 F 
Come on let's turn it up
 Am 
We're gonna sing it out
 C 
For all the world to hear
 Am C 
Oh oh oh whoa
 F 
There's love for everyone
 Am 
A new day has began
 F C 
Something to shout about


CHORUS:
           F 
Let it be known
          G Am 
That our God saves
     C F 
Our God reigns
             Am Am 
We lift You up up
 C F 
Let it be known
            G Am 
That love has come
      C F 
Love has won
             Am                   
We lift You up up up oh

 F Am F Am G 


VERSE 2:
 F 
Nothing can stop us now
 Am 
No one can keep us down
 C 
We've found our voice again
 Am C 
Oh oh oh whoa
 F 
No need for fear and shame
 Am 
There's power in His name
 F C 
Come on let freedom reign


CHORUS:
           F 
Let it be known
          G Am 
That our God saves
     C F 
Our God reigns
             Am Am 
We lift You up up
 C F 
Let it be known
            G Am 
That love has come
      C F 
Love has won
             Am                   
We lift You up up up oh

RAP FREESTYLE:
( F Am F Am G ) 
Let it be known, let it be known
That our God reigns, our God rose from cross to the throne
Let it be known, let everybody know
That love has won, love has come


BRIDGE:
 F C 
We lift Your name up higher and higher
 Am G 
We lift Your name up
 F C 
We shout Your name out louder and louder
 Am G 
We shout it out now

////////////////////////////////////////////
Heard this song at Soul Survivor and fell in love with it! 
Hope you enjoy playing it - let me know if you spot any mistakes!

Stranded Tabs by Washya

 -----------------------------------------------------------------------------
                           Stranded - Washya
-----------------------------------------------------------------------------
Tuning: Standard (EBGDAE)
Intro/Chorus (Play fast)
E|-------------------------------------------------------------|
B|-------------------------------------------------------------|
G|-------------------------------------------------------------|
D|-------9-8-7-------8-7-6-------7-6-5-------6-5-4-------5-4-3-|
A|-9-8-7-7-6-5-8-7-6-6-5-4-7-6-5-5-4-3-6-5-4-4-3-2-5-4-3-3-2-1-|
E|-7-6-5-------6-5-4-------5-4-3-------4-3-2-------3-2-1-------|x8

verses (Play fast all verses)
E|-------------------------------------------------------------------------|
B|-------------------------------------------------------------------------|
G|-------------------------------------------------------------------------|
D|-------------------------------------------------------------------------|
A|-------7-6-------7-6-5-------6-5-------6-5-4-------5-4-------5-4-3-------|
E|-7-6-5-----7-6-5-------6-5-4-----6-5-4-------5-4-3-----5-4-3-------4-3-2-|
PM * * * * * * * * * * * * * * * * * * * * * * * * * * * * * * * * * * * * 

E|---------------------------------------|
B|---------------------------------------|
G|---------------------------------------|
D|---------------------------------5-4-3-|
A|-4-3-------4-3-2-------3-2-------3-2-1-|
E|-----4-3-2-------3-2-1-----3-2-1-------|
PM * * * * * * * * * * * * * * * * 

interlude 
E|---------------------------------|---------|
B|---------------------------------|---------|
G|---------------------------------|---------|
D|-----------2---------------------|---------|
A|-------5-----2h3-------5-4-------|-6\5\4\2-|
E|-0-2-3---4-------3-2-0-----2-x16-|-4\3\2\0-|
PM * * * * *   *** * * * * * *       * * *   

Joyful Tabs by Washya

 -----------------------------------------------------------------------------
                                Joyful - Washya
-----------------------------------------------------------------------------
Tuning: Standard (EBGDAE)
Intro
E|--------------------|
B|--------------------|
G|-/8b-8b-/10p8p7-----|
D|----------------8b~-|
A|--------------------|
E|--------------------|
  
Verses
E|-------|      |---------------------|
B|-2-3-2-|      |---------------------|
G|-2-2-2-|      |---------------------|
D|-0-0-0-|      |---------------0-----|
A|-------|      |------0--------0-----|
E|-------| Then |-3h5b---0h3h5b---3b~-|

Verses
E|------------------------------|
B|-3----------3----3-----3----2-|
G|-2---4------2----2-----2----2-|
D|-0---4-----------0----------0-|
A|-----2-0000---00---000---00---|
E|------------------------------|
PM       ****   **   ***   ** 

Chorus
E|--------------------------------------------|
B|--------------------------------------------|
G|-------2------------4----/8b-8b-/10p8p7-----|
D|-5--7--2--2---8--6--4--4----------------8b~-|
A|-5--7--0--2---8--6--2--4--------------------|
E|-3--5-----0--/6--4-----2--------------------|

Solo
E|----------9------------------------10\8------------------------13\11-12b~-|
B|-------10---10------------------11------9-------------------14-------12b~-|
G|-12-11---------11\9-------14-12-----------11p10p8-----16-15---------------|
D|--------------------7~----------------------------10~---------------------|
A|--------------------------------------------------------------------------|
E|--------------------------------------------------------------------------|

Its A Long Way To The Top Tabs by Washya

 -----------------------------------------------------------------------------
                        It's A Long Way To The Top - Washya
-----------------------------------------------------------------------------
Tuning: Standard (EBGDAE)
Intro/Verses (Malcolm)
E|---------|
B|---------|
G|-2-2-x-2-|
D|-2-2-x-2-|
A|-0-0-x-0-|
E|---------|x many

Intro (Angus)   (verses)
E|-------66-|   |-6-6-|
B|-------66-|   |-6-6-|
G|-----6----|   |-----|
D|-6h7------|   |-----|
A|----------|   |-----|
E|----------|x2 |-----| x5 

Chorus (Both)
E|-------|
B|-9-7---|
G|-9-7-7-|
D|-9-7-7-|
A|-7-5-7-|
E|-----5-|

"try playing in a rock roll band......."
E|-----|
B|-777-|
G|-777-|
D|-777-|
A|-555-|
E|-----|

Back to chorus 

bagpipe section (Angus) (Malcolm) (Also during solo)
E|-----5-5~\-|          |---------|
B|-----------|          |---------|
G|-5h6-------|          |-2-2-x-2-|
D|-----------|          |-2-2-x-2-|
A|-----------|          |-0-0-x-0-|
E|-----------|          |---------|

Guitar Solo (Angus)

          E|----------------------------|
          B|-14b-14-10h12----10----10~\-|
G, D, A.  G|--------------11----11------|
          D|----------------------------|
          A|----------------------------|
          E|----------------------------|

G, D, A.  E|--------------17-18-17------------|
          B|-16b-14-16-16----------18-17------|
          G|-----------------------------18\\-|
          D|----------------------------------|
          A|----------------------------------|
          E|----------------------------------|


G, D, A.  E|-----------------------16--------------16-----------|
          B|-14-14----14-14----16b----16-14b-12h14----15-17b\\\-|
          G|-------15-------15----------------------------------|
          D|----------------------------------------------------|
          A|----------------------------------------------------|
          E|----------------------------------------------------|