Month: September 2013

Only Love Chords – Trade Mark

 Hey, this song was chord-ed by my guitar teacher. 

Intro

 C#m A E/G# B D B11 

Verse 1 
 C#m A Bsus4 B 
2 a.m and the rain is falling
 C#m A B E 
Here we are at the crossroads once again
          A B 
You're telling me you're so confused
 G#m C#m 
You can't make up your mind
 Dadd9 
Is this meant to be
         B 
You're asking me

Chorus
           A B 
But only love can say
 G#m C#m 
Try again or walk away
 F#m B 
But I believe, for you and me
      G#7 C#m 
The sun will shine one day
               A B 
So I'll just play my part
     G#m                           C#79+
And pray you'll have a change of heart
    F#m A B11 
But I can make you see it through
                   B C#m 
That's something only love can do

Verse 2
 C#m A Bsus4 B 
In your arms, as the dawn is breaking
 C#m A B E 
Face to face and we're thousand miles apart
 A B 
I've tried my best to make you see
 G#m C#m 
That's hope beyond the pain
            Dadd9 
If we give enough
        D 
If we learn to trust

Chorus
           A B 
But only love can say
 G#m C#m 
Try again or walk away
 F#m B 
But I believe for you and me
 G#7 C#m 
The sun will shine one day
              A B 
So I'll just play my part
 G#m                              C#79+
And pray you'll have a change of heart
    F#m A B11 
But I can make you see it through
                  B C#m 
That's something only love can do

Solo 

  C#m A E/G# B C#m A B B 

Bridge 

    A B 
I know if I could find the words
    G#m C#m 
To touch you deep inside
     D 
You give my dream just one more chance
       B11 G#m B 
Don't let it be our last goodbye

Chorus
           A B 
But only love can say
 G#m C#m 
Try again or walk away
    F#m B 
But I believe, for you and me
     G#m C#m 
The sun will shine one day
               A B 
So I'll just play my part
     G#m                           C#79+
And pray you'll have a change of heart
    F#m A B11 
But I can make you see it through
                  B C#m 
That's something only love can do

Nu Far Du Ga Hem Acoustic Chords – Stiftelsen

 Bass intro Guitar alternative

 F#m D A E   play twice

Vers 1
Oh yea
 F#m D A E 
             Ahaa
 F#m D A E 
      Ahaaa    nanana

 F#m D A E 
Ahaa Ahaaa  I kväll kanske jag har 
 F#m D A E 
mer tur det är du o ingen annan nanana
 F#m D A E 
Ahaa aaaahaa jag spelar ut min 
 F#m D A E 
roll nu  det är vi o inga andra ahaha
 D A 
Låt oss mista all kontroll
                      F#m 
folk har ändå ingen koll
                      E 
vi skyndar hem till mig (skyndar hem till mig)

Refr.

 F#m D   
Måste hela jävla natten gå
 B E F#m 
 innan jag får doppa veken i din eld
                    D 
Måste hela jävla natten gå
 B E 
 innan jag får komma till

Nu  F år du  G å hem  F#m D A E 

Nu  F år du  G å hem  F#m D A E 

Vers 2

 F#m D A E 
  Ahaa Ahaa  känner hur blodet rusar men 
 F#m D A E 
nej nej du vill ju bara prata ahaha
 F#m D A E 
Aaaahhhaa men att jag aldrig 
 F#m D A E 
lär mig du somnar o jag får tälta ahaha
 D A 
Varför är du så svår?
                        F#m 
är du rädd att jag är stor?
                            E  
den är ju liten o naggande gooo

Refr.

 F#m D   
Måste hela jävla natten gå
 B E F#m 
 innan jag får doppa veken i din eld
                    D 
Måste hela jävla natten gå
 B E 
 innan jag får komma till

Nu får du gå hem
 F#m D   
Måste hela jävla natten gå
 B E F#m 
 innan jag får doppa veken i din eld
                    D 
Måste hela jävla natten gå
 B E 
 innan jag får komma till

Nu får du gå hem 
måste hela jävla natten gå
måste hela jävla natten gå hey
måste hela jävla natten gå
måste hela jävla natten gå hey
måste hela jävla natten gå
måste hela jävla natten gå hey
måste hela jävla natten gå
måste hela jävla natten gå hey

*Solo*

Heeey Yeeaaa

 F#m D   
Måste hela jävla natten gå
 B E F#m 
 innan jag får doppa veken i din eld
                    D 
Måste hela jävla natten gå
 B E 
 innan jag får komma till

Nu får du gå hem 
 F#m D   
Måste hela jävla natten gå
 B E F#m 
 innan jag får doppa veken i din eld
                    D 
Måste hela jävla natten gå
 B E 
 innan jag får komma till

Nu får du gå heeeeem

Find Ys Faithful Chords – Steve Green

 G 
We're pilgrims on the journey
         C 
Of the narrow road
         G C 
And those who've gone before us line the way
 C Am C Am 
Cheering on the faithful, encouraging the weary
 C Am C D 
Their lives a stirring testament to God's sustaining grace

Surrounded by so great a cloud of witnesses
Let us run the race not only for the prize
But as those who've gone before us
Let us leave to those behind us
 C Am C D - D7 
The heritage of faithfulness passed on through godly lives

CHORUS:
         D (E)                             G (A)
Oh may all who come behind us find us faithful
         D Em (F#m)
May the fire of our devotion light their way
         C ( D )                   D
May the footprints that we leave
  Em C 
Lead them to believe
         Am (Bm)           C D 
And the lives we live inspire them to obey
         C Am G ~
Oh may all who come behind us find us faithful

After all our hopes and dreams have come and gone
And our children sift through all we've left behind
May the clues that they discover and the memories they uncover
Become the light that leads them to the road we each must find

REPEAT CHORUS(A step higher)

Oh may all who come behind us find us faithful
Oh may all who come behind us find us faithful 

If We Ever Chords – Stan Bush

 Stan Bush - If We Ever

 G G A Bm G G A A G G A D G G A A G G A Bm 
Six in the mornin' I'm lyin' in bed
       G G A A 
I got yesterday's dirt on my hands
 G G A D 
I hear the clock ringin' inside my head
         G G A A 
Time to get up and do it again

 Dsus4 D D 
I got a job goin' nowhere
 Asus4 A A 
Can't get my dreams off the ground
 G Bm Bm G A 
It's gonna take a little time now
                            D 
I know we're gonna make it somehow

 D G 
If we ever get out of this place
 G Bm A 
If we ever get out of the race
                     G 
I'm gonna take you away
   G D 
I promise you baby
 D G 
And when we find us a place on this earth
 G Bm A 
We're gonna know that our love's really worth
                              G G 
The price is two hearts will pay

 G G A Bm 
Some people tell me I'm wastin' my time
         G G A A 
Give it up I should just let things be
     G G A D 
But sooner or later they're all gonna find
          G G A A 
That the best things in life don't come free

 Dsus4 D D 
Well I got nothin' in my pockets
 Asus4 A A 
But I got a heart full of gold
 G Bm Bm G A 
It's gonna take a little faith now
                          D 
Girl we're gonna make it I know

 D G 
If we ever get out of this place
 G Bm A 
If we ever get out of the race
                     G 
I'm gonna take you away
   G D 
I promise you baby
 D G 
And when we find us a place on this earth
 G Bm A 
We're gonna know that our love's really worth
                              G G 
The price is two hearts will pay

 Bm A D G 
I been tellin' you baby, we're leavin' someday
       G F#m Em 
We've worked so hard to get this far
     G F#m A  
And it's about time things startet goin',
 A D D G G Bm A G G 
Things started goin' our way

 D D G G Bm A G G G G G G A Bm G G A A G G A D G G A A G G A Bm 
Six in the mornin' I'm lyin' in bed
       G G A A 
I got yesterday's dirt o

Pretty In Pink Tabs by Social Distortion

 Artisit: Social Distortion
Song: Pretty in Pink 
: Mike Layton (Laytonium@wowway.com)

Intro:

eb|---------------------------------------|
Bb|---------------------------------------|
Gb|--8-8-8-8-8--5-3-----------------------|
Db|--8-8-8-8-8--5-3--6-6-6-6-6-8-8-8-8-8--|
Ab|--6-6-6-6-6--3-1--6-6-6-6-6-8-8-8-8-8--|
Eb|------------------4-4-4-4-4-6-6-6-6-6--|

Verse:

eb|-------------------------------------------|
Bb|-------------------------------------------|
Gb|--8-8-8-8-8-6-6-6-6-6----------------------|
Db|--8-8-8-8-8-6-6-6-6-6-3-3-5-5-6-6-8-8-8-8--|
Ab|--6-6-6-6-6-4-4-4-4-4-3-3-5-5-6-6-8-8-8-8--|
Eb|----------------------1-1-3-3-4-4-6-6-6-6--|
(alternate palm mute and open, listen to the song and you will get the rhythm)

Chorus:

eb|------------------|
Bb|------------------|
Gb|------------------|
Db|--3~--5~--6~--5~--|
Ab|--3~--5~--6~--5~--|
Eb|--1~--3~--4~--3~--|

(Verse 2)
(Chorus)
(Intro)
(Verse 3)
(Chorus)
(Intro)

The Hand That Rocks The Cradle Tabs by Smiths V3

 -------------------------------------------------------------------------------
THE HAND THAT ROCKS THE CRADLE (TROY TATE VERSION) - The Smiths
-------------------------------------------------------------------------------
: OrangeTrousers

Tuning: Standard, with capo on 2nd fret

The Song; http://www.youtube.com/watch?v=6TlWCbvPiDk

The Chords: G6, Cadd9, Dsus2


e|-----------------|-----------------|
B|-3-3-x-3---3-----|-----1p0-----0h1-|
G|-0-0-x-0---0-4p0-|---0-----2-------|
D|-0-0-x-0---0-----|---------0-0-----|
A|-----------------|-3---------------|
E|-----------------|-----------------|

e|-----------------|-----------------|
B|-3-3-x-3---3-----|-----1-----3-0---|
G|-0-0-x-0---0-4p0-|-----0-----0-----|
D|-0-0-x-0---0-----|---2-------------|
A|-----------------|-3-------5-------|
E|-----------------|-----------------|


************************************

| /   slide up
| \   slide down
| h   hammer-on
| p   pull-off
| ~   vibrato
| +   harmonic
| x   Mute note
| b   Bend
| pb  Pre-bend
| br  Bend release
| pbr Pre-bend release
| brb Bend release bend

************************************

I Dont Owe You Anything Tabs by Smiths V3

 -------------------------------------------------------------------------------
                            I DONT OWE YOU ANYTHING - The Smiths
-------------------------------------------------------------------------------
: OrangeTrousers

Tuning: Standard with Capo on 2nd Fret


INTRO
e|-----3-----3-----|-----5-----5-----|-----5-----5-----|-----5-----5-----|
B|-----5-----5-----|-----5-----7-----|-----7-----7-----|-----7-----7-----|
G|-----4-----4-----|-----6-----6-----|-----6-----6-----|-----6-----6-----|
D|-----5-----5-----|-----7-----7-----|-----7-----7-----|-----7-----7-----|
A|-----3-----3-----|-----0-----0-----|-----5-----5-----|-----5-----5-----|
E|-----------------|-----------------|-----------------|-----------------|
   ^   ^   ^   ^     ^   ^   ^   ^     ^   ^   ^   ^     ^   ^   ^   ^

VERSE
e||-----5-----5-----|-----5-----5-----|-----5-----5-----|-----5-----------|
B||-----7-----7-----|-----7-----7-----|-----7-----7-----|-----7-----------|
G||-----6-----6-----|-----6-----6-----|-----6-----6-----|-----6-----------|
D||-----7-----7-----|-----7-----7-----|-----7-----7-----|-----7---0-------|
A||-----5-----5-----|-----5-----5-----|-----5-----5-----|-----5-------0---|
E||-----------------|-----------------|-----------------|-----------------|
    ^   ^   ^   ^     ^   ^   ^   ^     ^   ^   ^   ^     ^   ^   ^   ^
                                     |First Time                    Repeat
e|-----------------|-------0---------|-----5-----5-----|-----5-----5-----||
B|-----0-----3--/5-|-----------0-----|-----7-----7-----|-----7-----7-----||
G|---------0-------|-------------6---|-----6-----6-----|-----6-----6-----||
D|-------4---------|-----7---7-----7-|-----7-----7-----|-----7-----7-----||
A|---5---------0---|---0-------------|-----5-----5-----|-----5-----5-----||
E|-3---------------|-----------------|-----------------|-----------------||
   ^   ^   ^   ^     ^   ^   ^   ^     ^   ^   ^   ^     ^   ^   ^   ^

 |Second Time                     ...Bridge
e|-----5-----5-----|-----5-----------|-----------------|-------0---------|
B|-----7-----7-----|-----7-----------|-----0-----3--/5-|-----------0-----|
G|-----6-----6-----|-----6-----------|---------0-------|-------------6---|
D|-----7-----7-----|-----7---0-------|-------4---------|-----7---7-----7-|
A|-----5-----5-----|-----5-------0---|---5---------0---|---0-------------|
E|-----------------|-----------------|-3---------------|-----------------|
   ^   ^   ^   ^     ^   ^   ^   ^     ^   ^   ^   ^     ^   ^   ^   ^

e|-----5-----5-----|-----5---5---4---|-----3-----3-----|-----5-----5-----|
B|-----7-----7-----|-----7---7---6---|-----5-----5-----|-----5-----7-----|
G|-----6-----6-----|-----6---6---5---|-----4-----4-----|-----6-----6-----|
D|-----7-----7-----|-----7---7---6---|-----5-----5-----|-----7-----7-----|
A|-----5-----5-----|-----5---5---4---|-----3-----3-----|-----0-----0-----|
E|-----------------|-----------------|-----------------|-----------------|
   ^   ^   ^   ^     ^   ^   ^   ^     ^   ^   ^   ^     ^   ^   ^   ^

e||-----5-----5-----|-----5---5---4---|-----0-----------|-----------------||
B||-----7-----7-----|-----7---7---6---|-----------0-----|-----0-----0-----||
G||-----6-----6-----|-----6---6---5---|---------------4-|/6-----------6---||
D||-----7-----7-----|-----7---7---6---|---5-----5-------|---7---7-------7-|| x2
A||-----5-----5-----|-----5---5---4---|-3-----3-----3---|-----------------||
E||-----------------|-----------------|-----------------|-----------------||
    ^   ^   ^   ^     ^   ^   ^   ^     ^   ^   ^   ^     ^   ^   ^   ^

e|-----------------|-----------------|-----3-----3-----|-----5-----5-----|
B|-----3-----2-----|-----3-----2-----|-----5-----5-----|-----5-----7-----|
G|---------------4-|---------------2-|-----4-----4-----|-----6-----6-----|
D|---4-----4-------|---4-----4-------|-----5-----5-----|-----7-----7-----|
A|-2-----2-----2---|-2-----2-----2---|-----3-

The Left Side Of Everywhere Tabs by Sleeping With Sirens

 The Left Side of Everywhere - Sleeping With Sirens
Tuning: Drop C# 

I worked for days typing this up. I didn't have access to it at home :/

(00:00-00:05)

D#|------------------------|----------------------|
A#|-10----10----10----10---|-8----8---------------|
F#|----7-----7-----7-----7-|---7----7--10-7--9-10-| x2
C#|------------------------|----------------------|
G#|------------------------|----------------------|
C#|------------------------|----------------------|


(00:05-00:24)

D#|--------------------------|----------------------|--------------------------|
A#|--------------------------|----------------------|--------------------------|
F#|------10-14--10-14--------|-----10-10--7-10--7~~-|------10-14--10-14--------|
C#|--------------------------|----------------------|--------------------------|
G#|-0-0----------------0-0~~-|--0-------------------|-0-0----------------0-0~~-|
C#|-0-0----------------0-0~~-|--0-------------------|-0-0----------------0-0~~-|
                       *                                                 *
D#|------------------------|-----------------|-----------------|-----------------|
A#|------------------------|-----------------|-----------------|-----------------|
F#|-----12-14--12-14--12~~-|-----------------|-----------------|-----------------|
C#|------------------------|-8-8-8-8-8-8-8-8-|-8-8-8-8-8-8-8-8-|-7-7-7-7-7-7-7-7-|
G#|--0---------------------|-8-8-8-8-8-8-8-8-|-8-8-8-8-8-8-8-8-|-7-7-7-7-7-7-7-7-|
C#|--0---------------------|-8-8-8-8-8-8-8-8-|-8-8-8-8-8-8-8-8-|-7-7-7-7-7-7-7-7-|

D#|-----------------|
A#|-----------------|
F#|-----------------| Repeat until the 
C#|-7-7-7-7-7-7-7-7-| open 7 chord
G#|-7-7-7-7-7-7-7-7-|
C#|-7-7-7-7-7-7-7-7-|


(00:25-00:27)

D#|--------------------|-------------------|
A#|--------------------|-------------------|
F#|--------------------|-------------------|
C#|-7-7-7-7-7-7-7-10~~-|--10--10-10--10----|
G#|-7-7-7-7-7-7-7-10~~-|--10--10-10--10----|
C#|-7-7-7-7-7-7-7-10~~-|--10--10-10--10----|


(00:27-00:49)

D#|------------------------|----------------------|
A#|-10----10----10----10---|-8----8---------------|
F#|----7-----7-----7-----7-|---7----7--10-7--9-10-| x2
C#|------------------------|----------------------|
G#|------------------------|----------------------|
C#|------------------------|----------------------|

D#|-------------5--0-8-|-0-8--10-0--12\13/12p8-|-------------------|
A#|-5-6--8-6--8--------|-----------------------|-------------------|
F#|--------------------|-----------------------|-------------------|
C#|--------------------|-----------------------|----------------5~-|
G#|--------------------|-----------------------|-3~--3~--3-3--3-3~-|
C#|--------------------|-----------------------|-3~--3~--3-3--3----|

D#|------------------|
A#|------------------|
F#|------------------| All x2
C#|--5--5~--5-5--5-5-|
G#|--3--3~--3-3--3-3-|
C#|------------------|


(00:50-00:52)

D#|-----------------|-------------|
A#|-----------------|-------------|
F#|-----------------|-------------|
C#|-------5~~~------|----x-x--x-x-|
G#|-3~~~--3~~~--5~~-|----x-x--x-x-|
C#|-3~~~--------5~~-|----x-x--x-x-|


(00:52-01:12)

D#|--------------------------|----------------------|--------------------------|
A#|--------------------------|----------------------|--------------------------|
F#|------10-14--10-14--------|-----10-10--7-10--7~~-|------10-14--10-14--------|
C#|--------------------------|----------------------|--------------------------|
G#|-0-0----------------0-0~~-|--0-------------------|-0-0----------------0-0~~-|
C#|-0-0----------------0-0~~-|--0-------------------|-0-0----------------0-0~~-|
                       *                                                 *
D#|------------------------|-----------------|-----------------|-----------------|
A#|------------------------|-----------------|-----------------|-----------------|
F#|-----12-14--12-14--12~~-|-

Other Side Of Love Chords – Sean Paul

 Chords: 
 D E F# A 


Baby you don't have to keep looking through my phone
If something is going on
Girl you'd already know
We can't even say two words without a fight anymore
How did we get here ?
Baby I gotta know


On the other side of love
You tell me you hate me and I hate you more
On the other side of love
How did we get here ?
Baby I gotta know


Hey baby girl, longevity
Is a thing what u you get with love
trust and good livity
So listen' me
And just belive
And let us stop going on
Like we are enemy
Cause most definite
Without you in my life My girl it would be desperate
How could i forget
All the times when you had my back
Gal you give me many strenght
Hundred per cent
So I represent and you represent
I am the president
You're my first lady
Girl you heaven sent
Have my first baby


I told you girl
When you first met me
It's a crazy world
Nuttin' comes free


Baby you don't have to keep looking through my phone
If something is going on
Girl you'd already know
We can't even say two words without a fight anymore
How did we get here ?
Baby I gotta know (See dey!)


On the other side of love
You tell me you hate me and I hate you more
On the other side of love
How did we get here ?
Baby I gotta know (Ring clock!)


Girl I rember when you first gave it up
And we began to first live it up
I'll steer it up, I'll gear it up
We came to love we no fear is us
But now you ain't seein' it clear enough
Yeah you're lookin' at me phone and tearing up
And tell me you want to share it up
Me ah tell you what we share is us


I told you girl
When you first met me
It's a crazy world
Nuttin' comes free


Baby you don't have to keep looking through my phone
If something is going on
Girl you'd already know
We can't even say two words without a fight anymore
How did we get here ?
Baby I gotta know
(sing that)


On the other side of love
You tell me you hate me and I hate you more
On the other side of love
How did we get here ? (Ring clock!)
Baby I gotta know


Oh-oh Ooooh-oh-oh (x4)


Baby you don't have to keep looking through my phone
If something is going on
Girl you'd already know 

The Other Side Chords – Sean Mcconnell

 A E  
Snowed this mornin'
       B C#m 
That kind of cold
   B                              
Where your car won't start
 A 
And your heart won't go

 A E A B C#m 
The headwaters up here will freeze your bones
 A C#m B A 
But they say I can float this river home
              B 
It's that long

Chorus:
  A E B C#m 
The Mississippi river runs so wide
 A E B C#m 
The biggest tear God ever cried
 A E B C#m 
Right now it feels like the great divide
    A E B C#m 
And Lord I want to be on the other side
   A E B E 
And Lord I want to be on the other side

 A E B C#m 
Where that icy water turns to mud
 B A 
And tastes dirty like it always should
 A E 
Where they talk lazy
 A B C#m 
And they walk slow
 A C#M B A 
And there's gospel in the radio
 B 
That's where I want to go

Chorus

 A E B C#m 
50 miles til I get home
 B A 
But when you're this close miles go twice as long
 A E 
When I cross over
 A B C#m 
I'm going to get down
 A C#M B A 
Gonna close my eyes and kiss the ground

Basted Chords – Scrambled Eggs

 **//wa man gyuy nag tab ani oi sa kadugay sa panahon.
nakahibaw nalang kog gitar, ako-ako rani.

comment your suggestion kung naa! Peace :3 //**



BASTED


Intro:  D - A - Bm - G  (2x)
      (halfway sa note, i-open ang string sa inyong pointing finger)



 D A 
Nya kamusta na sa pamisita
 Bm G 
mo sa kadtong promo sa Gaisano
 D A 
kay kung di ka motubag
 Bm G 
tubagon ko ug tagnaon ko


 D A Bm 
haaaahhh ahhhh ahhaaaa
 G 
basted napud ka
 D A Bm G 
haaaahhh ahhhh ahhaaaa Hoooh


 Bm 
Mga taw sa kalibutan
 A 
gi bahin ka duha
 Bm 
kung naay laki ug babaye
 A 
wa nay lain pa
 G 
dakong sayop ang pagtirada
 D 
kung kamo pareho ra
 G 
kana maoy estorya
                       D 
nga dakong bakak ang gugma
 Bm 
unsa bay hinungdan
 G Bm A 
nga di nimo masabtan, sabta nalang


repeat intro


 D A 
Kay bisag unsaon mo pagpagwapo
 Bm G 
dili gyud sakto sa parihas nimo
 D A 
kay ang babaye para sa laki
 Bm G 
maoy timan-e, aron mag silbe


 D A Bm 
haaaahhh ahhhh ahhaaaa
 G 
basted napud ka
 D A Bm G 
haaaahhh ahhhh ahhaaaa Hoooh


 Bm 
Ang mga taw sa kalibutan
 A 
gi bahin ka duha
 Bm 
kung naay laki ug babaye
 A 
ug wa nay lain pa
 G 
dakong sayop ang pagtirada
 D 
kung kamo pareho ra
 G 
kana maoy estorya
                       D 
nga dakong bakak ang gugma
 Bm 
unsa bay hinungdan
 G Bm A 
nga di nimo masabtan, sabta nalang


Outro:  D - A - Bm - G  (2x)








: Jemai Lueck. 9.10.2013

Wet Road Chords – Scout Niblett

         -------------------------------------------------------------------------------
                            Wet Road by Scout Niblett
-------------------------------------------------------------------------------
: Scott H.

From "Sweet Heart Fever" (2001). Easy song, same chord progression throughout.

Tuning: EADGBE


Intro:  C Am Em C Am Em 
I walk behind you

 C Am Em 
So I can see you 

 C Am Em 
Move the way you do, do

 C Am Em 
Move the way you do


 C Am Em 
Don't you know just to play with what you're given?

 C Am Em 
Don't you know just to play with what you're given?

 C Am Em 
Care taker for the only one to believe in


Wet road paradise
Wet roads today
Wet roads on the way
To your house again

Don't you know just to play with what you're given?
Don't you know just to play with what you're given?
Care taker for the only one to believe in

You were already captured
You were already loved 
i just wanted to stand with you
In our space again


It's only for a little while
It's only for a little while

Don't you know just to play with what you're given?
Don't you know just to play with what you're given?
Care taker for the only one to believe in

Fierce play gets you everywhere
Fierce play gets you everywhere 

Pom Poms Tabs by Scout Niblett

 -------------------------------------------------------------------------------
                             Pom Poms by Scout Niblett
-------------------------------------------------------------------------------
: Scott H.

From "Kidnapped by Neptune" (2005). This one's a little unusual in that halfway through 
the song she abandons the guitar and switches to drums only. Below I've tabbed the 
guitar portion of the song (the first half). Pretty easy. She finger picks these chords.

Tuning: EADGBE

Verse
e|-----------------------------------------------------------------------|
B|-----------------------------------------------------------------------|
G|-----------------------------------------------------------------------|
D|-x-7-x-7-x-7-x-7--x-8-x-8-x-8-x-8--x-7-x-7-x-7-x-7--x-8-x-8-x-8-x-8----|
A|-x-7-x-7-x-7-x-7--x-8-x-8-x-8-x-8--x-7-x-7-x-7-x-7--x-8-x-8-x-8-x-8----|
E|-5-5-5-5-5-5-5-5--6-6-6-6-6-6-6-6--5-5-5-5-5-5-5-5--6-6-6-6-6-6-6-6----|


Chorus
e|---------------------------------------------|
B|---------------------------------------------|
G|----------------------x-8--------------------|
D|-x-8--x-7--x-5--x-3---x-8--x-7-x-7-x-7-x-7---|
A|-x-8--x-7--x-5--x-3---6-6--x-7-x-7-x-7-x-7---|
E|-6-6--5-5--3-3--1-1--------5-5-5-5-5-5-5-5---|


Lyrics:

    Whatever you wanna say,
    You can say it to me
    Whatever you wanna be,
    You can be it
    Whoever you wanna love,
    You can love 'em
    Right now

    Does anybody know a cute girl
    With some pom poms?

    Does anybody know a cute girl
    With some pom poms?

    Everybody needs someone
    To spell out their name, yeah

    Cause everybody needs someone
    To spell out their name
    In a little song

    So please, please, please
    Just send her along
    Please, please, please
    Just send her along

    To cheer me on, cheer me up
    Cheer me on, cheer me on
    To cheer me on, cheer me up
    Cheer me on, cheer me on
    In a little song

Nevada Chords – Scout Niblett

 -------------------------------------------------------------------------------
                             Nevada by Scout Niblett
-------------------------------------------------------------------------------
: Scott H.

From "This Fool Can Die Now" (2007). When playing the E chord during the chorus and 
verses, alternate between strumming and pull offs, same as how she plays the chord during 
the intro, and end with bending the strings.

Tuning: EADGBE

Intro:

e|----------------------------------------------------|
B|----------------------------------------------------|
G|-------2----------0h2-0---------2-------0h2-0-------|
D|-0h2------0h2------------0h2-------0h2--------------|
A|-----0---------0--------------0---------------------|
E|----------------------------------------------------|

(Repeat x 8)


Then, play


    E E E E E E 

e|----------------------------------------------------|
B|----------------------------------------------------|
G|-1--------1--0--1b------1--------1--0--1b-----------|
D|-2-----0--2--0--2b------2-----0--2--0--2b-----------|
A|-2-----0--2--0--2b------2-----0--2--0--2b-----------|
E|-0-----0--0--0--0-------0-----0--0--0--0------------|

(Repeat x 3)

                                           B5 G5 F#5     
Am5    E 

Put on that suit and lend me that costume

                                    B5 G5 F#5     Am5    E 
Put on that suit and get in my car


                                               B5 G5 F#5    
 Am5    E 
If we set off now, we'll be there by daybreak



                                  B5 G5 F#5     Am5
Fifteen hours and we'll be there


                             E 
Full fire moon as our guide

                                             B5 G5 F#5     Am5

I promised I would, I promised I'd take you


                         E 
Here I am with my honor



                          B5 G5 F#5     Am5
See you about, see you about

                       E 
Oh, my love in Nevada

                          B5 G5 F#5     Am5
See you about, see you about

                       E 
Oh, my love in Nevada


                                             B5 G5 F#5     
Am5    E 

So put on that suit and lend me that costume

                                    B5 G5 F#5     Am5    E 
Let's come home a little different

                                    B5 G5 F#5     Am5
Put on that suit and get in my car

                       E 
Oh, my love in Nevada

Black Sheep Boy Tabs by Scott Walker

 Song: Black Sheep Boy
Artist: As performed by Scott Walker (written by Tim Hardin)

 Matt Hunziker

Standard tuning, Capo on 1st fret
(Swing those 8th notes when appropriate!)

*Intro*
|----------------|0---------------|----0--1--0-----|--------0-------|
|------------1-3-|--0-------0-----|0-3-1--3----3---|1---1-3---1-----|
|------0---------|------0-------0-|0-------------0-|--0-------------|
|--2-0-----2-2---|----0-------0---|----0-------0---|----2-------2-0-|
|3-------3-------|----------------|----------------|3---------------|
|----------------|3-------3-------|3-------3-------|--------3-------|

*Verse*
|-------0--------|----------------|----------------|----0--1--0---0-|
|----3-----1-----|------1---3-1---|--0---------0---|0-3-1--3----3---|
|----0-------0---|--0-----------0-|------0-------0-|0-----------0---|
|--2-----------2-|----2-------2---|----0-------0---|----0-----------|
|3-------3-------|3-------3-------|----------2-----|------------2---|
|----------------|----------------|3-------3-------|3-------3-------|

|--------0-------|------------0-1-|3-------3-1-0---|----------------|
|----------1-----|----0---0-3-1-3-|0-------0-----3-|1---1-3-1-------|
|------0-------0-|--0---0-0-------|--0---0---------|--0-------0-----|
|--2-0-------2---|----0-------0---|----0-----------|----2-------2-0-|
|3-------3-------|----------------|------------2---|3-------2-------|
|----------------|3-------3-------|3-------3-------|----------------|

*Chorus*
|----------0-----|----------------|----------------|------0---------|
|----1---1-------|0---------------|------1---------|--1-------1-----|
|------2-------2-|--0----0----0---|----2---------0-|----0---------0-|
|--2---------2---|----0---------0-|--3------/3-2---|----------------|
|0-------0-------|----------2-----|----------------|3-----------2---|
|----------------|3-------3-------|1-------1-------|--------3-------|

|----------------|----------------|----------------|---------0------|
|------1-3---3---|1---1---1-----1-|0-------0-----0-|----1-3------3--|
|----0---0---0---|2---2-----0-----|--0-------------|--0-------------|
|--2-------------|------------2---|----------0h2---|----------------|
|3---------2---2-|--0---0-3-------|----------------|3-----------2---|
|----------------|----------------|3---3/7---------|--------3-------|

|0---------------|
|--3-1-----------|

Death For My Birthday Acoustic Chords – Say Anything

 "Death For My Birthday"
CAPO1
 Em C 
Let me guide you through the story of a boy and his curse
 Em C G 
Tiny diamond in his stroller with his first step chasing the hearse
Sippin' at a cup that's half way filled
But looking forward to the day he pays that drinking bill
There's no peace, there's no quiet on this earth
He confided, nestled tightly in that womb beneath the dirt
Hurt no more and when he turned 24
He wrote a note to nail to God's front door that said

 Em 
I want death
 C 
Death for my birthday
 Em 
I want death
 Am 
Death in the worst way
 Em 
I want death
 C 
Death for my birthday
 Am G 
Don't get me wrong cause..

 Em 
I love life
 C 
But life has a boyfriend
 Em 
Bless my soul
 Am 
I'm out to destroy them
 Em 
I want death
 C 
Death for my birthday
 Am G 
For my birthday

 Em C G 
From the high paying job and the love of his life
He rode a roller coaster ride of lust on their wedding night
They made a baby in unmentionable ways
He was ungrateful as a man could be on that blessed day
And underneath he thought this is all a phase
Just a blip in the existence of a structure vast and great
Pray each night to his cross of a charm
For the one thing he couldn't afford just to buy the farm

 Em 
I want death
 C 
Death for my birthday
 Am 
I want death
 F 
Death in the worst way
 Em 
I want death
 Am                             
Death for my birthday
 Am G 
Don't get me wrong cause..

 Em 
I love life
 C 
But life has a boyfriend
 Em 
Bless my soul
 Am 
I'm out to destroy them
 Em 
I want death
 Am G 
Death for my birthday
 C 
For my birthday
                                                 

    Am C 
I'll never lose another friend again
 Em Am C 
Or watch them start a war that's fought for ideals that are dead
 Am C 
I'll never have an argument again
 Am Em 
Because my dust
 Am Em 
will be your salt
 Am F G 
My blood will hydrate you off
 C Am 
My heart will be your meal
            F G 
And I won't ride the cycle of the way it kills to think and feel

No more, no


 Em 
I want death
 C 
Death for my birthday
 Am 
I want death
 F 
Death in the worst way
 Em 
I want death
 Am                             
Death for my birthday
 Am G 
Don't get me wrong cause..

 Em 
I love life
 C 
But life has a boyfriend
 Em 
Bless my soul
 Am 
I'm out to destroy them
 Em 
I want death
 Am G 
Death for my birthday
 C 
For my birthday

 Em C 
One sweet day his heart ceased to beat
 Em Am 
He fell so fast beneath all our feet
 F G 
Through bugs and snakes
 Am C 
Last words he had to say were
 Em C 
Help me claw my way to the surface
 Em Am 
Oh sweet lord you know I deserve this
 F G 
Just one more, just one more birthday

Phoenix Chords – Satyricon

 Awesome Band, awesome Song, awesome Lyrics.
Have fun with the Chords and feel free to improve!

Cheers!




Satyricon – Phoenix


 D#m Bbm D#m Bbm D#m Dm D#m Dm D#m Dm D#m Dm Bbm Fm Fm Bbm  
Into the night
            Fm  
My long suffering friend
                  Bbm 
We'll be reborn again
                              Fm 
Right here where everything ends


                   Bbm 
Face to the sky
                 Fm 
A trail of smoke in the air
                 Bbm 
Pass into emptiness
                    Fm 
New life's awaiting you there


                        D#m 
Slave to some wretched old
                      Fm 
Imagination of yesteryear
                      D#m 
Now all that grows in the skulls
                              Fm 
Of the living are flowers of fear


             Bbm 
The morning red
                    Fm 
A sun-god calling you back
                            Bbm 
Down through a thousand years
                        Fm 
White embers whistle and crack



                  D#m 
Await the dawn with her kiss of redemption,
             Fm 
My firebird!
                       D#m 
You were the queen of the souls of all men
                                  Fm 
Before there was the w-o-r-d


 Bbm Fm Fm Bbm Bbm D#m Fm Bbm C# Fm# Fm Bbm Cm Bbm Cm C# 
The morning new, the morning red,
         D#m F#m 
The fiery promise
 Bbm F#m Fm 
Mad swirling smoke wheels round her head
 Bbm Cm Bbm Cm C# D#m F#m 
Dedication to the queen of souls, her lost disciples
 Bbm F#m  
And when the fire's work is done
                         Fm Bbm C#m F#m C#m 
Our time to be reborn



                    Bbm 
By pagan streams
                               Fm  
A wind whips the leaves from the trees
                              Bbm 
And it is revealed to us
                    Fm 
That we are dreams within dreams

                            D#m 
Born from some wretched
                                         Fm 
Old imagination of yesteryear
                      D#m 
Now all that grows in the skulls of the living
                          Fm 
Are flowers of fear




 Bbm Cm Bbm Cm C# 
The morning new, the morning red,
         D#m F#m 
The fiery promise
 Bbm F#m Fm 
Mad swirling smoke wheels round her head
 Bbm Cm Bbm Cm C# D#m F#m 
Dedication to the queen of souls, her lost disciples
 Bbm F#m  
And when the fire's work is done
                         Fm Bbm C#m F#m C#m Bbm Fm  
Our time to be reborn



 Bbm Fm Bm Bbm Fm</

I Will Remember You Chords – Sarah Mclachlan V5

 I Will Remember You
By: Sarah Mclachlan
Chords by: clarebear734
 G C Dsus4 D 
I will remember you
 G C D7 
Will you remember me?
 G C G Em7 
Don't let your life pass you by
 G Csus2 D7 G 
Weep not for the memories

 G C D 
I'm so tired but I can't sleep
 G C D Em 
Standin' on the edge of something much too deep
 G C D 
It's funny how we feel so much but we cannot say a word
               G C D             
Though we are screaming inside oh we can't be heard

 G C Dsus4 D 
I will remember you
 G C D7 
Will you remember me?
 G C G Em7 
Don't let your life pass you by
 G Csus2 D7 G 
Weep not for the memories

Instrumental:  G C Dsus4 D G C Em7 G C D G C D7 G C D 
I'm so afraid to love you, but more afraid to loose
 G C D Em7 
Clinging to a past that doesn't let me choose
     G C D 
But once there was a darkness, deep and endless night
     G C D 
You gave me everything you had, oh you gave me light


 G C G 
I will remember you
 G C D7 
Will you remember me?
 G C G Em7 
Don't let your life pass you by
 G Csus2 D7 G 
Weep not for the memories

 G C G 
I will remember you
 G C D7 
Will you remember me?
 G C G Em7 
Don't let your life pass you by
 G Csus2 D7 G 
Weep not for the memories

One Of Those Things Chords – Sanctus Real

 Here is one of my favorite Sanctus Real songs from their latest release, "Run."
I hope you enjoy!

           C         
I'm gonna tell you why we keep on coming back
          G C 
 To the same old set of tired and rusty tracks
   G F 
 Dreams fade and wither all the time
    C Am F                 
But you know when you're born for something in this life
                C         
And I'm gonna tell you why we keep on keeping on
           G C 
Cause a song was made for us and us for a song
                                                                            
     G F 
 It knocks on the door of your heart and you can't deny
           Am C F                 
 But you open up, you let it inside

Pre-Chorus:
        G Am F  
So I sing at the top of my lungs
 G Am F  
Raise my hands and get caught up
 


Chorus:
               G Am F 
It's just one of those things you can't run away from
 (One of those things you can't run away from)
  G Am F 
 One of those things you can't run away from
 (One of those things you can't run away from)
 

         C         
 And I'm gonna tell you why we keep on singing about
             G C 
 Love and faith and the things that so many people doubt
                      G F  
Oh there's a fire in us, that burns from the inside out
 Am C F  
We don't need to water it down


Pre-Chorus:
        G Am F  
So I sing at the top of my lungs
 G Am F  
Raise my hands and get caught up
 


Chorus:
               G Am F 
It's just one of those things you can't run away from
 (One of those things you can't run away from)
  G Am F 
 One of those things you can't run away from
 (One of those things you can't run away from)

Pre-Chorus 2x  -- Chorus 2x -- END

Luluh Chords – Samsons

 CHORD SAMSONS LULUH
Intro :  A Amaj7 F#m F# Bm F# A E A E G F# 
Saat terindah saat bersamamu
     Bm F# A E 
Begitu lelapnya aku pun terbuai
 A E G F# 
Sebenarnya aku tlah berharap
        Bm F# A E 
Ku kan memiliki dirimu selamanya

   A D 
Segenap hatiku luluh lantak
                Bm       
Mengiringi dukaku yang 
              E 
kehilangan dirimu
     A  
Sungguh ku tak mampu
         D Bm 
Tuk meredam kepedihan hatiku
                 E A 
Untuk merelakan kepergianmu

   A E    
Ingin kuyakini
       G F#  
cinta takkan berakhir
       Bm F# 
Namun takdir menuliskan 
      A E 
kita harus berakhir

Int.  Bm C#m D E Bm C#m D E  ( E5 F5 F#5 )

 Bm C#m D E 
Ohh…ohh… Ku tak sanggup merelakanmu..
 E D#m C#m F# 
Ohh…ohh…ohh..Ku tak sanggup merelakanmu..

   B E 
Segenap hatiku luluh lantak
                C#m       
Mengiringi dukaku yang 
              F# 
kehilangan dirimu
     B D# 
Sungguh ku tak mampu
         G#m F# C#m   
Tuk meredam kepedihan hatiku
                 F# B 
Untuk merelakan kepergianmu