Month: November 2013

Beautiful Scars Tabs by Disciple

 Disciple - Beautiful Scars

Tuning Standard




Intro:
e|-----------------|-----------6-6-6-|
B|-3-3-3-4-4-------|-3-3-3-4-4-------|
G|-----------3-3-3-|-----------------|
D|-----------------|-----------------|
A|-----------------|-----------------|
E|-----------------|-----------------|

Chords:
|Eb5|Bb5|Ab5|Ab5|
                 2x




Verse:
e|--------------------|--------------------|
B|--------------------|--------------------|
G|-5-5-5--------------|-5-5-5--------------|
D|-5-5-5--------------|-5-5-5--------------|
A|-3-5-5--3-5-7-7-5-5-|-3-5-5--3-5-7-7-5-5-|
E|-3-3-3--------------|-3-3-3--------------|

then |Ab5|Ab5|Eb5|F5|






Pre-Chorus:

Eb5  |D/Bb5|Ab5|-|
|----|----|----|
|----|----|----|
|-8--|--7-|--5-|
|----|----|----|
|-6--|--5-|--3-|
|----|----|----|





Chorus:
|Eb5|Bb5|Ab5|Ab5|
|Eb5|Bb5|Ab5|Ab5|
|Eb5|Bb5|Ab5|Ab5|
|F5|G/Eb5|Ab5|Ab5|
|C5|Bb5|

Solo:
e|-----------------|-----------6-6-6-|
B|-----------------|-----------------|
G|-7-8-7-8---------|-7-8-7-8---------|
D|----------8-8-8--|-----------------|
A|-----------------|-----------------|
E|-----------------|-----------------|

Tip Of My Tongue Tabs by Diesel

 Tip of my Tongue - Johnny Diesel and the Injectors

(Standard tuning)

Main riff   (* is palm muted)

   (B)         (A)       (G#)       (A)

E-------00-0-------00-0------00-0-------00-0---|
B-------00-0-------00-0------00-0-------00-0---|
G-------44-4-------44-4------44-4-------44-4---|
D-------44-4-------44-4------44-4-------44-4---|
A--2-2--22-2---0-0-00-0------xx-x---0-0-00-0---|
E------------------------4-4-44-4--------------|
   * *         * *       * *        * *

NB: Main riff continues through the verse


B           A
Tonight's the night I'm gonna
G#          A
Make my true confession
B           A
I got my courage up
G#          A
there's nothing that can keep me down now
B           A
My words get tangled up in
G#          A
good intentions
F                               E
But I know what my heart wants to say, hey hey yeah

(Main riff x 2)

I've got to let you know for
Worse or for better, there's a
Hundred ways that I could show you
But it wouldn't matter
It's time to tell you
And I'll try to keep it simple

F#                     E
I know what you want to hear
F#                     A
Why do I forget every time you get near

Right on the tip of my tongue
Right on the tip of my tongue
Right on the tip of my tongue
On the tip of my tongue

Look in my eyes and tell me
What do you see
There's a message that I'm sending
And I hope you receive
My words get tangled up in good intentions
You'll know what my heart wants to say

Right on the tip of my tongue
Right on the tip of my tongue
Right on the tip of my tongue

Three little words that I want to say
You'll never know if you walk away

I know what you want to hear
Why do I forget every time you get near

Right on the tip of my tongue
Right on the tip of my tongue
Right on the tip of my tongue

Three little words that I want to say
You'll never know if you walk away

Right on the tip of my tongue
Right on the tip of my tongue
Right on the tip of my tongue

Mhairi Bhan Tabs by Dougie Maclean

 Artist: Dougie MacLean
Song: Mhairi Bhan
Capo: IV
Tuning: Open C Tuning [CGCGCE]
Pattern: Finger Picking
Tablature by: Keiren A. W. Scott


(Introduction)
E|-------------------------------------------------------------------------------------------|
C|-----2-----------0--------------------0-----2-------0--------------------0----------0------|
G|--------3-----------0--------------0-----------3-------0--------------3----------3---------|
C|-----------5----------2--------0-----------------5--------2-------3-----------3------------|
G|--------------------------3-s-5-------------------------------3--1----------1--------------|
C|--0----------------------------------------0-----------------------------------------------|  (x3)

E|-------------------------------------------------------------------------------------------|
C|-----2-----------0--------------------0--------------0---------------0--------------0------|
G|--------3-----------0--------------0-------------0---------------0--------------0----------|
C|-----------5----------2--------0-------------0---------------0--------------0--------------|
G|--------------------------3-s-5----------5---------------5--------------5------------------|
C|--0----------------------------------------------------------------------------------------|

(Verse 1 + tab)
E|-------------------------------------------------------------------------------------------|
C|---------------0----------0-----------0----------0----------0----------0--------0--------0-|
G|-------------0-----------0----------0----------0----------0---------0---------0---------0--|
C|-----------0-----------0----------5----------5----------5----------5---------0---------0---|
G|---------5----------5-----------3----------3----------3----------3----------5---------5----|
C|-------------------------------------------------------------------------------------------|
Oh the sky was                   shaking as we           turned   her     round


E|-------------------------------------------------------------------------------------------|
C|---------------0----------0-----------2----------0----------0----------0--------2--------0-|
G|-------------3-----------3----------0----------0----------3---------3---------0---------0--|
C|-----------3-----------3----------2----------2----------3----------3---------2---------2---|
G|---------1----------1-----------0----------0----------1----------1----------0---------0----|
C|-------------------------------------------------------------------------------------------|
Through the crashing          spray    of      the      Cullin         Sound

E|-------------------------------------------------------------------------------------------|
C|---------------0----------0-----------0----------0----------0----------0--------0--------0-|
G|-------------0-----------0----------0----------0----------0---------0---------0---------0--|
C|-----------0-----------0----------5----------5----------5----------5---------0---------0---|
G|---------5----------5-----------3----------3----------3----------3----------5---------5----|
C|-------------------------------------------------------------------------------------------|
And all hands were              silent  on      that      Final           Day


E|--------------------------------------------------------------------------------------------|
C|---------------0----------0-----------2----------0----------0----------0--------0--------0--|
G|-------------3-----------3----------0----------0----------0---------0---------3---------3---|
C|-----------3-----------3----------2----------2----------0----------0---------3---------3----|
G|---------1----------1-----------0----------0----------5---------5----------1---------1------|
C|--------------------------------------------------------------------------------------------|
  As  we sailed the              Mhairi  Bhan            Home

(Verse 2)
And that tired 

Impregnable Question chords – Dirty Projectors V2

 Artist: Dirty Projectors
Song: Impregnable Question

Chord Chart

(Capo 1)

e|-3--3--0---0-----2---0---------|
B|-3--5--1---1-----3---0---3-----|
G|-4--5--2---0-----2---4---2-----|
D|-5--5--2---2-----0---5---5-----|
A|-5--3--0---3---------4--(5)----|
E|-3-----------------------------|

    G C Am C D C# ø  Dsus4 


Verse 1

 G C Am G Am 
If there is ever the impregnable question of why?

         C D 
What did or didn't pass?

 C G C G 
It would help to seek comfort in destiny

 C G Am C# ø     C 
but i really don't, we don't see eye to eye

       G Dsus4 C G 
but i need you and you're always on my mind.


Verse 2

Whether there is or isn't any position
you care if i take or if i don't.
I will always hold, what what we shared so long
to be the only love, and though we don't see eye to eye
I need you, and you're always on my mind.


(Instrumental)


Verse 3

Through time, and through many a situation
we both look forward, side-by-side
we have shared it all, we have both stood tall
what is mine is yours, in happiness and in strife.
You're my love, and i want you in my life.


Outro

            G Dsus4 C G 
You're my love, and i want you in my life

            G Dsus4 C G 
You're my love, and i want you in my life.


---------------------------------------------------------------

NOTES

Harmonic progression is the same throughout all verses and the instrumental section, 
repeat the last 4 chords for the outro.

I'm not sure the (5) in the bass of the Dsus4 chord is played on the guitar but it is 
present in the bass, so adding it makes
the harmony smoother when playing solo. Feel free to leave it out though if you can't 
make the stretch for the chord.

C#ø = C# half diminished chord.

Trapped Again chords – Southside Johnny And The Asbury Jukes

 SOUTHSIDE JOHNNY & THE ASBURY JUKES - TRAPPED AGAIN
from the  Hears Of Stone (1978)



 Gm F Bb 
Here I am, baby, right where you found me 
 F Cm 
Trying to break these chains that surround me 
 Gm F Bb 
If I look a little different it's 'cause I've changed 
 F Cm 
Half-painted pictures are all that remains 

 Eb Bb F Bb Eb Bb F Bb 
I can't let my past mis-takes,   let 'em bring me down 
 Eb Bb F Bb 
I ain't waitin' on no angel of mercy 
   F Bb Eb F 
I tried my best and I can't help my-self 

     Gm 
I'm trapped again 
   Eb F 
I can't get out without losing you 
     Gm 
I'm trapped again 
   Eb F 
Why can't you feel what I'm going through?
     Gm 
I'm trapped again 
   Eb F 
I need an answer, girl, can't you see?
     Gm 
I'm trapped again 
          Eb F Fsus4  (10x, play this fast)   
Come and rescue me 

 Gm F Bb 
Monday morning came so fast 
 F Cm 
What a fool to think that dreams would last 
 Gm F Bb 
Close my eyes and it's still so clear 
 F Cm 
Remember the night, girl, the world disappeared 

 Eb Bb F Bb Eb Bb F Bb 
Can't let the hand of fate, let it drag me down 
 Eb Bb F Bb 
I can't get no angel of mercy 
   F Bb Eb F 
I came to stay but I got swept away 


     Gm 
I'm trapped again 
   Eb F 
I can't get out without losing you 
     Gm 
I'm trapped again 
   Eb F 
Why can't you feel what I'm going through?
     Gm 
I'm trapped again 
   Eb F 
I need an answer, girl, can't you see?
     Gm 
I'm trapped again 
          Eb F Fsus4  (10x, play this fast)   
Come and rescue me


Bass intro x 2	with rhythm gtr x 2

Solo over  Gm /// Eb/F /  x 4



 Eb Bb F Bb Eb Bb F Bb 
Can't let the hand of fate, let it drag me down 
 Eb Bb F Bb 
I can't get no angel of mercy 
   F Bb Eb F 
I came to stay but I got swept away 


     Gm 
I'm trapped again 
   Eb F 
I can't get out without losing you 
     Gm 
I'm trapped again 
   Eb F 
Why can't you feel what I'm going through?
     Gm 
I'm trapped again 
   Eb F 
I need an answer, girl, can't you see?
     Gm 
I'm trapped again 


Repeat till fade

Dejeuner En Paix chords – Stephan Eicher

 Bm G  
 J'abandonne sur une chaise le journal du matin
           A F#  
 Les nouvelles sont mauvaises d'où qu'elles viennent
       Bm G  
 J'attends qu'elle se réveille et qu'elle se lève enfin
      A F#  
 Je souffle sur les braises pour qu'elles prennent
         G A  
 Cette fois je ne lui annoncerai pas
           Bm  
 La dernière hécatombe
      G A  
 Je garderai pour moi ce que m'inspire le monde
             F#  
 Elle m'a dit qu'elle voulait si je le permettais
                 Bm G  
 Déjeuner en paix,
   A F#  
 Déjeuner en paix


 Je vais à la fenêtre et le ciel ce matin
 N'est ni rose ni honnête pour la peine
 Est-ce que tout va si mal ? Est-ce que rien ne va bien ?
 L'homme est un animal me dit-elle

 Elle prend son café en riant
 Elle me regarde à peine
 Plus rien ne la surprend sur la nature humaine
 C'est pourquoi elle voudrait enfin si je le permets
 Déjeuner en paix, déjeuner en paix

 Je regarde sur la chaise le journal du matin
 Les nouvelles sont mauvaises d'où qu'elles viennent
 Crois-tu qu'il va neiger ?  me demande-t-elle soudain
 Me feras-tu un bébé pour Noël ?

 Et elle prend son café en riant
 Elle me regarde à peine
 Plus rien ne la surprend sur la nature humaine
 C'est pourquoi elle voudrait enfin si je le permets
 Déjeuner en paix, déjeuner en paix

This Life I Live chords – Emu Music

 C Gsus4 F C Gsus4 
This life I live is not my own
           F Gsus4 C 
For my Redeemer paid the price
            C Gsus4 
He took it to be His alone
            F Gsus4 C 
To be His treasure and His prize
               Am F C 
The things of earth I leave behind
           Am F Gsus4 
To live in worship of my King
                           Dm 
His is the right to rule my life
              F Gsus4 C 
Mine is the joy to live for Him

 Gsus4 F C Gsus4 
I died to sin upon the cross
             F Gsus4 C 
I'm bound to Jesus in His death
            C Gsus4 
The old is gone and now I must
         F Gsus4 C 
Rely on Him for every breath
           Am F C 
With every footstep that I tread
           Am F Gsus4 
What mysteries He has in store
                          Dm 
I cannot know what lies ahead
              F Gsus4 C 
But know that He has gone before

 Gsus4 F C Gsus4 
There is a voice that pierced the grave
               F Gsus4 C 
A power that rolled the stone away
            C Gsus4 
A sound of life, I know I'm saved
              F Gsus4 C 
The voice of God has called my name
           Am F C 
So I will rise, and in the air
            Am F Gsus4 
Behold the glory of the King
                           Dm 
I will not fear to meet Him there
             F Gsus4 C 
I know my life is hid with Him

Whos The Boss chords – Farewell Continental

 Listen to the song for the rhythm, the chords used throughout are:

Intro
 Dm Bb G# 

Verse
 Dm Bb 
It was a figure of speech, They say you are what you eat
 G# 
I haven't eaten in weeks, That's what you're doing to me

 Dm Bb 
I wasn't falling in love, I was just falling apart
 G# 
I would have helped you out, From the very start

 Dm Bb                     
It was a false alarm, I'd rather be 
 G# 
alone now, How can you be so sure?

 Dm Bb  
When you've got nothing to give, You've just got nothing to give
 G# 
I don't believe a word of it

Intro
 Dm Bb G#  x2

Bridge
 G# G 
We were on and on and everything, A perfect pair of misery
 G# G 
A courtesan of crimson, And her king                                     x2 

Ending
 Dm Bb G#            x3   Then
 Dm Bb G# G

Warming Sun chords – Dirty Heads V2

 Standard tuning

Bar chords sound best!!

Listen to song for strumming pattern(s)

(Intro)
 C Dm  (x3)  Em Dm C Dm  (x3)  Em Dm 

(Verse 1)
     C Dm Em 
Picking up slack, you live for it lady
                    Dm 
You never have a good time and go
     C Dm Em 
Takin' it back, you try for it daily
                        Dm 
You only like that old rock 'n roll
        C Dm Em 
You wait for the night you're rockin' it steady
                        Dm 
You can't stop and f**k up your flow
       C 
You fight from the fix
      Dm Em 
The weight of it's heavy
                          C 
You feel like you'll never let go


[Pre-Chorus]
      F 
And over, and over
       Em Dm 
And over, and over again

Oh yeah
     F 
Over, and over
     Em Dm G 
And over, and over again



[Chorus]x2 
                C Dm 
Look to the warming sun
              Am G 
We left the troubles all around the town
                    C Dm 
You know we didn't hurt no one
         Am G 
We lit the sky up and we burned it down
 C Dm  (x3)  Em Dm 


(Verse 2)
 C Dm Em 
Slippin' in time, we move with it only
                    Dm 
We didn't know the night went so fast
   C 
We broke all our bones
   Dm Em 
The city, it owed we
             Dm          
We never let it live in the past
   C Dm Em 
We live in the light, we wake with it slowly
                    Dm 
Learn to love, the one thing that lasts
     C 
When daybreak came on
             Dm Em 
Knew it was one thing it showed me
                       Dm 
That there was nothing left in our path


[Pre-Chorus]

[Chorus]x2
 Am G                              
Oh-oh-oh, 'round and 'round we go
 Am G                        
Oh-oh-oh, now we reapin' what we sowed
 Am G                                
Oh-oh-oh, 'round and 'round we go
         F G 
And Ooo


[Chorus]x4 

End on  C

Walang Iba chords – Ezra Band V10

 Walang iba by ezra band

intro

 G Bm Am D G Bm 
Ilang beses nang nag-away
             Am 
Hanggang sa magkasakitan
         D                 
Di na alam ang pinagmulan


 G Bm 
Pati maliliit na bagay
      Am 
Na napag-uusapan
          D 
Bigla na lang pinag-aawayan

Refrain

        Am Bm 
Ngunit kahit na ganito
     Am Bm 
Madalas na di tayo magkasundo
      Am Bm C                     D--
Ikaw lang ang gusto kong makapiling sa buong buhay ko

Chorus1:

       G Bm 
Kahit na binabato mo ako ng kung anu-ano
  Am D 
Ikaw pa rin ang gusto ko
       G Bm 
Kahit na sinasampal mo ako't sinisipa
   Am D 
Nasusugatan mo
         Am Bm C 
Ikaw pa rin, walang iba
           Am Bm C D 
Ang gusto kong makasama...
            G Bm 
Walang iba
         C D --
Walang iba...


III.
Nagsimula sa mga asaran
Hanggang sa magkainitan
Isang eksenang bangayan nanaman


Ba't ba kasi pinagpipilitan
Ang di maintindihan?
Di naman kinakailangan

(Refrain)
Chorus1

Interlude

Chorus2:
       G Bm 
Kahit na binabato mo ako ng kung anu-ano
  Am D 
Ikaw pa rin ang gusto ko
       G Bm 
Kahit na sinasampal mo ako't sinisipa
   Am D 
Nasusugatan mo
         Am Bm C 
Ikaw pa rin, walang iba
           Am Bm C 
Ang gusto kong makasama
        Am Bm C 
Wag ka nang mawawala


           G  -  Bm  -  C  -  D 
Walang iba...

Last Chord:  G

Clouds Of Dawn chords – Dead Moon

 Clouds Of Dawn (Fred Cole)


INTRO:

 E D C G A B  (2x)


 E C G B        
We ain't got the feeling and dreams not at all
For those who come lately are in for a fall
We're told of our outcome in silent rage and anger
We're bent out of focus facing the chasing danger


CHORUS:

 E C E C E C 
  Miles away,    miles away,    we're miles away
           G B 
But the clouds of dawn will soon be gone


+INTRO 


Hold it too close you'll squeeze it to death
For those who push hardest soon run out of breath
I know there's a reason for moments of sadness weeping
It's the pain of a lifetime, it's all that we have worth keeping


CHORUS + INTRO


Lose your illusions and you'll lose your chance
For those who control love have no romance
But I still don't know you for all of the time we're taking
You're still in my eyes babe, the future's ours for waiting


CHORUS + INTRO


(END!)





CHORDS INTRO:

E|-------------------------- 
B|--9---7---5---3---5---7---  
G|--9---7---5---4---6---8--- 
D|--9---7---5---5---7---9---            
A|--7---5---3---5---7---9---  
E|--7---5---3---3---5---7--- 
 
     E D C G A B 


CHORDS (rest):

E|------------------
B|--0---1---0---4---  
G|--1---0---0---4--- 
D|--2---2---0---4---            
A|--2---3---2---2---  
E|--0---3---3---2---
 
     E C G B    




Dead Moon: 
Fred Cole-  Guitar, Vocals 
Toody Cole-  Bass, Vocals  
Andrew Loomis- Drums 


: Deadmoony

"Clouds Of Dawn" on "Stranded In The Mystery Zone"  LP (Tombstone Records, T-40, 1991)

Johnnys Got A Gun chords – Dead Moon

 Johnny's Got A Gun (Fred Cole)

(Dead Moon live version)


INTRO:

E|--0-0-0-0-0-0-0-0-0-0-0-0-0-0-0-0-0-0-0-0-0-0-0-0-0-0-|
B|--5-5-5-5-5-5-5/8-8-8-7-7-7-5-5-3-3-5-5-5-3-0-3-5-5-5-|
G|------------------------------------------------------|   
D|------------------------------------------------------|            
A|------------------------------------------------------|   
E|------------------------------------------------------|   

(SPOKEN INTRO:) 

You've crushed the resistence before it's begun
silenced the voices who've dared to confront
laying your hands upon all that you rule
becoming the man who you overtrew
now you better watch out
'cause johnny's got a gun


 A D A E 
you've got all the armies, you've got all the arms
         A D 
you've got all the armories
         A E 
the harbor's blockaded, the streets barricaded
         A D 
every thought is under lock and key
            A E  
there's an idea rising that you can't detect
           A E  
from the same poor souls you claim to protect
            A E 
there's a violent burning hatred in every mothers son
      D E A D A D     
you better watch out, 'cause johnny's got a gun


you've anchored your warships, cleared all the airstrips
readied the seeds to decay
stolen the youth to fill ranks in your troops
keeping rebellion at bay
the fathers before you who now line the graves
are being remembered before it's too late
and their sons you call rebels are coming one
you better watch out, 'cause johnny's got a gun


the hour's upon you, the past will soon haunt you
yesterday becomes today
the helpless, the hopeless, the lost ones, the homeless
the weak can afford to be brave
there's only much a poor man can take
before he no longer fears making mistakes
if dying's the answer, then dying be done
you better watch out, 'cause johnny's got a gun


They've come from the country, the city and shore
they've come from the wind and the rain
the come from the fires who's ashes are cold
they come from the desert and snow
they fear they'll be dying but more than that fear
the cries of oppression that no ears can hear
until every last rebel surrenders or runs
you better watch out, 'cause johnny's got a gun


 E A  

(END!)



E|-----------------| 
B|---2---3---0-----|   
G|---2---2---1-----|   
D|---2---0---2-----|              
A|---0---0---2-----|  
E|-------2---0-----|   
      A D E 




Dead Moon: 
Fred Cole-  Guitar, Vocals 
Toody Cole-  Bass, Vocals  
Andrew Loomis- Drums


: Deadmoony


"Johhny´s Got A Gun" on "Defiance" LP (Tombstone Records, T-35, 1990) and "Echoes 
Of The Past"(Sub Pop 2CD Compilation)

Dagger Dagger Terror Terror chords – Farewell Continental

 Listen to the song for timing & rhythm, here are the chords used throughout the song:
 
Intro
 E Dm B             x4

Verse
 E Dm B 
Do you remember me
I am an injured soul
I measure anchors deep
I have no self-control
I section pieces off 
of your most precious skin
and bury deep within
I didn't say you could let go

Chorus 
 Em F# G# B 
terror terror on the wall, the mirror says to end it all
dagger dagger in my hand, I'm hesitant to heed command.
I wish I may I wish I might, not have to sleep alone tonight
will you take me over, will you take me over.

Intro
 E Dm B             x4

Verse
 E Dm B  
I will eradicate 
all of your everythings
and send you quiet-like 
rowing gently down the stream

Chorus 
 Em F# G# B 
terror terror on the rise, a century of compromise
dagger dagger at my throat, the harshest word I ever spoke
I wish I may, I wish I might, not have to sleep alone tonight
will you take me over, will you take me over 

Bridge (ringing effects)
first star I see tonight, 
I wish I may I wish I might, collapse, corrode, cave in, 
hold tight, I need you here, I need you here.

Ending
 B G# 
will you take me over, will you take me over, 
 Em G# 
I'm terrified of what's inside, will you take me for a ride      x2 (then x2 again without lyrics)

The Greatest Of All Time How You Feelin Now chords – Farewell Continental

 Listen to the song for timing & rhythm, here are the chords used throughout the song:

Intro
 A B C#      x3
 A B Em 

Verse
 A                             
I felt a neon buzz, An artificial hum
 C# B 
Across my forehead, Almost didn't make it

 A 
There was a chorus of men, Of shiny two-time class
 C# B 
My legs were crying, Out for circulation

 A 
Tell me I'm the greatest of them all
 C# B 
Will you protect me? Yes I will protect you
 A 
Do you think we'll make it out alive?
 C# B  
I think we'll make it out, Is that the best you can 

Chorus
 A B C# A 
do? How you feeling now? feeling now?      x2

Intro
 A B C#      x3
 A B Em 

Verse
 A 
There was a flittering glimpse, In almost certain wealth
 C# B 
I placed upon it, Thought I'd never lose you

 A 
You spoke a moment too soon, Like you often do
 C# B 
In times of mourning, Or intense excitement
 A 
Tell me I'm the greatest of them all
 C# B 
Will you forgive me? Yes possibly maybe
 A 
Do you think we'll make it out alive?
 C# B 
We'll never make it, No we'll never make it

Bridge
 Em A C# E 
After the war I was waiting for you, I couldn't make it back in time             x4

Chorus
 A B C# A  
Oooh, How you feeling now? feeling now? 

Intro
 A B C#      x3
 A B Em

Love Down The Highway chords – Son Volt

 Capo (fret one)

Intro:
 Am D G D G Am D 
Every road
       G D 
Has a story to tell
    G D 
Of dreams that have soared
    G Am 
And dreams that fell
                D 
Of finding that level
          G D      
That says out of control
 G D 
Prospecting riches
       Am D 
That reside in the soul


CHORUS (abbreviated)
            G D 
Throw this love down the highway
 G Am 
See where it turns
 G D G Am 
Life is a shell game

 G Am D 
Lessons lost, lessons learned

 Am D Am D 
There will never be a time
         G D 
Like the time that is now
    G D 
To reach for the promise
     G Am 
Of melody on the bough
              D 
Break up the silence
        G D 
Make it clear, make it last
 G D 
Forgiveness given
       Am D 
Break away from the past

CHORUS (full)
 D G Am D 
Throw this love down the highway
 G Am 
See where it turns
 G D 
Life is a shell game
        G Am 
Lessons lost, lessons learned
          G D G D 
There’s a world of wisdom inside a fiddle tune
           G D 
Throw this love down the highway
 Am D                
See where it takes you

GUITAR SOLO
[ A ] [ D ] [ G ] [ D ]
[ D ] [ G ] [ D ] [ A ]
[ G ] [ D ] [ G ] [ D ] [ G ] [ D ] [ A ] [ D ]

 A D A D G D 
While the mortar and bricks may crumble
 G D G Am 
Time moves along with a dance-step stumble
           D G D 
Really no choice but escape from the past
 G D A D 
Break up the silence, make it clear make it last

CHORUS:
 D G Am D 
Throw this love down the highway
 G Am 
See where it turns
 G D 
Life is a shell game
        G Am 
Lessons lost, lessons learned
          G D G D 
There’s a world of wisdom inside a fiddle tune
           G D 
Throw this love down the highway


[ G ] [ D ] [ G ] [ D ] [ G ] [ D ] [ Am ] [ D ]

           G D G Am 
There’s a world of wisdom inside a fiddle tune
            G D 
Throw this love down the highway
 Am D  
See where it takes you

[ G ] [ D ] [ G ] [ D ] 

            G D 
Throw this love down the highway
 Am D  
See where it takes you

[ G ] [ D ] [ Am ] [ D ]

Rock N Roll Queen chords – Sportfreunde Stiller

 Sportfreunde Stiller- Rock`n Roll Queen
Lifealbum  MTV  "Unplugged in New York" 2009
by. Batucaca   Capo 1. Bund

 Am ,

 Am 
You are the sun
You are the only one
My heart is blue
My heart is blue for you

 D C Am 
Be my, be my, be my little Rock`n Roll Queen
Be my, be my, be my little Rock`n Roll Queen
Be my, be my, be my little Rock`n Roll Queen
Be my, be my, be my little Rock`n Roll Queen

( Am , Drumm,  Am )

 Am 
Du bist, die Sonne, 
Du bist, die Einzige
Du bist, so Cool, 
Du bist, so Rock`n Roll

 D C Am 
Be my, be my, be my little Rock`n Roll Queen
Be my, be my, be my little Rock`n Roll Queen
Be my, be my, be my little Rock`n Roll Queen
Be my, be my, be my little Rock`n Roll Queen


Instr.  D , C , A , A ,  D , C , A , A ,  D , C , A , A  / F , D C Am 
Ahahaa, Ahahaa, Ahaa-haaa-haaa-haaa-haaa-haaaa

 Am 
You are, the Sun
You are, the only One
You are, so cool
You are, so Rock`n Rolll

 D C Am 
Be my, be my, be my little Rock`n Roll Queen
Be my, be my, be my little Rock`n Roll Queen
Be my, be my, be my little Rock`n Roll Queen
Be my, be my, be my little Rock`n Roll Queen

(Outro)  Am

Dead chords – Stephen Fretwell

 -----------------------------------------------------------------------------
                             "Dead" by Stephen Fretwell
-----------------------------------------------------------------------------
: JohnJoe Walters
johnjoewalters@hotmail.co.uk


Tuning:EADGBE


Chords: 

133211  F 
X02210  Am 
XX0231  Dm 
X13331  Bb 
320001  G7 
X32010  C 
X32310  C7  

Each verse (including instrumental start to verse 3) has same chords.


Verse 1: (Begins with a hammer-on from the open 6th string "e" note to the F chord)

 F Am                  
  Sun blushed roses are next to the bed
 Dm Bb 
  I've drunk too much coffee, it's gone to my head
 F Am        
  Walk me down the side streets  and hold my hand
 Dm Bb 
  It looks like I'm leading  but we both know I can't
          Bb C F Dm     
  For a week and a night I've been out of my mind
 G7 C C7 
  But please don't get me wrong, oh



Verse 2: (As verse 1, but see last line)

Thirteen red roses that will soon be dead
Should I box them up for you darling, perhaps make a hat for your head
Walk me down Grand Street with a glass in your hand
Talking about behaviour well I don't understand
What you want from my hands anymore like before

 G7 C C7 F 
 But please don't get me wrong, oh, whatever that means


Verse 3:

['Instrumental' for first two lines - chords as verse 1 for first two lines]
 
            Bb C F Dm  
  And you won't ever see past yourself or past me
            Bb C F Dm 
  And the lines each one's drawn thirty-four, fifty-one
 G7 C C7 F 
  But please don't get me wrong, oh, whatever that means






Please enjoy!


************************************

| /   slide up
| \   slide down
| h   hammer-on
| p   pull-off
| ~   vibrato
| +   harmonic
| x   Mute note
| b   Bend
| pb  Pre-bend
| br  Bend release
| pbr Pre-bend release
| brb Bend release bend

************************************

Frankly Mr Shankly chords – Smiths V2

 The Smiths - Frankly Mr Shankly
 The Queen Is Dead (1986)

Capo 4

Intro -  C 

1ST VERSE
 F Am G  
Frankly, Mr. Shankly, this position I've held 

    Am G C 
It pays my way, and it corrodes my soul

           F Am G 
I want to leave, you will not miss me 

           Am G F C 
I want to go down in musical history 


VERSE 2
 F Am G 
Frankly, Mr. Shankly, I'm a sickening wreck 

              Am G C 
I've got the 21st century breathing down my neck 

              F Am G 
I must move fast, you understand me 

              Am G F C 
I want to go down in celluloid history, Mr. Shankly 

MIDDLE


VERSE 3
 F Am G 
Fame, Fame, fatal Fame 

             Am G C 
It can play hideous tricks on the brain

                F  
But still I'd rather be famous 

      Am G 
Than righteous or holy 

 Am G F C 
Any day, any day, any day 


VERSE 4    
     F Am G 
But sometimes I'd feel more fulfilled 

        Am G C 
Making Christmas cards with the mentally ill 

           F Am G 
I want to live and I want to Love 

           Am G F C 
I want to catch something that I might be ashamed of 


VERSE 5
 F Am G 
Frankly, Mr. Shankly, this position I've held 

    Am G C 
It pays my way and it corrodes my soul 

               F Am G 
Oh, I didn't realise that you wrote poetry 

          Am G F C 
I didn't realise you wrote such bloody awful poetry, Mr. Shankly 


VERSE 6

 F Am G 
Frankly, Mr. Shankly, since you asked 

           Am G C 
You are a flatulent pain in the arse 

          F Am G 
I didn't mean to be so rude 

          Am G F 
Still, I must speak frankly, Mr. Shankly 

                  C 
Oh, give us your money ! 

Self Inflicted Tabs by Smile Empty Soul V2

 -------------------------------------------------------------------------------
                             Self Inflicted - Smile Empty Soul
-------------------------------------------------------------------------------
: wallinman78

Tuning: Drop C#

              Here are the chords but you have to figure out the strumming pattern on your own


Intro Clean First Then Distorted 

E|---------------------------------------------------------------------------|
B|--3---------10-------------------------------------------------------------|
g|--2----3----x----12--------------------------------------------------------|
d|--0----1----8----10--------------------------------------------------------|
a|--0----1----8----10--------------------------------------------------------|
E|--0----1----8----10--------------------------------------------------------|

Pre Chorus 

e|---------------------------------------------------------------------------|
B|--------3-----------3-----------3------------3-----------------------------|
G|-----------2-----------2-----------0------------0--------------------------|
D|---------------------------------------------------------------------------|
A|--------------------------1--1--------3--3---------------------------------|
E|--0--0--------1--1---------------------------------------------------------|

Chorus

e|---------------------------------------------------------------------------|
B|--3------------------------------------------------------------------------|
g|--2---5---3---5---5---3---2------------------------------------------------|
d|--0---5---3---3---5---3---2------------------------------------------------|
a|--0---3---1---3---3---1---0------------------------------------------------|
E|--0-----------3-------3---2------------------------------------------------|

Breakdown

e|---0---0-------------------------------------------------------------------|
B|---3---3-------------------------------------------------------------------|
g|---2---0---5---5-----------------------------------------------------------|
d|---0---0---3---5-----------------------------------------------------------|
a|---0---3---3---5-----------------------------------------------------------|
E|---0-------3---5-----------------------------------------------------------|





************************************

| /   slide up
| \   slide down
| h   hammer-on
| p   pull-off
| ~   vibrato
| +   harmonic
| x   Mute note
| b   Bend
| pb  Pre-bend
| br  Bend release
| pbr Pre-bend release
| brb Bend release bend

************************************