Month: December 2013

If Thats Not Love chords – The Naked Brothers Band V2

 Bb F C 
If that's not love then what is? 
 Bb F C 
If that's not friendship then what is? 
 Bb F C/A 
If that's not music then what is? 

 A B C#m 
We've got that music in our blood. 
 A B C#m 
Magic ceases and then we're done. 
 A B C#m 
Magical feeling has begun. 
 A B C#m 
Magical feeling has begun. 
 E E/G# A 
And before you know it we are there. 
 E E/G# A 
On top of the world it seems. 
 E E/G# A 
I don't know who or why, or where. 
 E E/G# A 
But I can still hear the music. 

If that's not love then what is? 
If that's not friendship then what is? 
If that's not music then what is? 

We've got that music in our heart. 
Magic ceases and then we start. 
Magical feeling has begun. 
Magical feeling has begun. 

And before you know it we are there. 
On top of the world it seems. 
I don't know who or why, or where. 
But I can still hear the music. 

 Bb F C 
If that's not love then what is? 
 Bb F C 
If that's not friendship then what is? 
\ Bb F C/A 
If that's not music then what is? 
 Bb F C/A 
If that's not music then what is? 
 Bb F C 
If that's not music then what is? 
 Bb F C/A 
If that's not music then what is? 
 Bb F C/A 
If that's not music then what is? 
 Bb F C 
If that's not music then what is?


This is 100% Correct, the parts where there is no chords above the sentences its 
the same as before.

I Found A Love chords – The Falcons

 I Found a Love   The Falcons  Lead: Wilson Pickett  



by Rick in Macon

 G C G D Em G D 
Yeah yeah, yeah yeah, yeah yeah heh heh yeah heh heh yeah
 G C G C 
I found a love, I found a love
 G D Em G D 
I found a love that I need, oh yeah
 G C G C  
I found a kiss I just wanna tell you that I can't resist
 G D Em G D 
I found a love that I need, oh yeah 
 G 
And I wanna call her now
 G C G D Em G D 
Yeah yeah, yeah yeah, yeah heh heh yeah heh heh yeah

 G C 
Wait a minute; one thing I wanna say right here
     G C  
The way that woman walks, she set my soul on fire
 G C               
The way she talks, she's my heart's desire
     G D Em G D 
And oh she leave me, I think that I would die
 G                               
Sometime I'll call her in the midnight hour
 G C                     
Yeah yeah don't leave me baby
 G D Em G   
Yeah yeah yeah yeah, yeah

Stay The Night chords – Zedd V7

 Artist: Zedd feat. Hayley Williams (from Paramore)
Song Title: Stay the Night
 Clarity: Deluxe Edition (2013)
 ashleyfoo
Email : ashleyfoo95@live.com


Feel free to comment and rate =)

Based on:  https://www.youtube.com/watch?v=i-gyZ35074k

Standard tuning
Chords:  C Em D G Bm Am 
Capo on 1st fret


[Verse]
 Em D G 
I know that we are upside down
 Am Bm C 
So hold your tongue and hear me out
 Em D G 
I know that we were made to break
           Am C 
So what? I don't mind
 Em D G 
You kill the lights, I'll draw the blinds
 Am Bm C 
Don't dull the sparkle in your eyes
 Em D G 
I know that we were made to break
           Am C 
So what? I don't mind

[Chorus]
 Em D G 
Are you gonna stay the night?
 Am Bm C 
Are you gonna stay the night?
 Em D - G Am C 
Oh oh oh,   are you gonna stay the night?
 Em D G 
Are you gonna stay the night?
 Am Bm C 
Doesn't mean we're bound for life
 Em D - G Am C 
So oh oh oh, are you gonna stay the night?

[Beat break]
 Em D G Am Bm C Em D G Am C Em D G 
Are you gonna stay the night?
 Am Bm C 
Doesn't mean we're bound for life
 Em D - G Am C 
So oh oh oh, are you gonna stay the night?

[Verse]
 Em D G 
I am a fire, you're gasoline
 Am Bm C 
Come pour yourself all over me
 Em D G 
We'll let this place go down in flames
      Am C 
Only one more time
 Em D G 
You kill the lights, I'll draw the blinds
 Am Bm C 
Don't dull the sparkle in your eyes
 Em D G 
I know that we were made to break
           Am C 
So what? I don't mind

 Em D G 
Are you gonna stay the night?
 Am Bm C 
Are you gonna stay the night?
 Em D - G Am C 
Oh oh oh,   are you gonna stay the night?
 Em D G 
Are you gonna stay the night?
 Am Bm C 
Doesn't mean we're bound for life
 Em D - G Am C 
So oh oh oh, are you gonna stay the night?



(this part you might have to listen to the song to get it but basically the rhythm is 
the same as the verse)
 Em D G Am Bm C Em D G 
Night night night night night...
         Am C 
Are you gonna stay the night?



[Beat break]
 Em D G Am Bm C Em D G Am C Em D G 
Are you gonna stay the

Something Sweet chords – Sunrise Avenue

 Song: Something Sweet
Artist: Sunrise Avenue
 Popgasm

Intro:
 E B Dbm A   (4x)

 E B 
Come to me close to me
 Dbm A 
Park here beside me 
 E B Dbm A 
Come to me leave the rest far behind
 F# 
Give me a moment
    A 
I need to say something 
 F# 
Give me a moment 
    A B 
I need to say something sweet

 E B Dbm A  (2x)

 E B Dbm 
Can you feel all the same things
           A  
That I'm feeling 
 E B Dbm A 
We are so ready to share all this 
 F# 
Give us a moment 
      A 
We need to do something 
 E 
Give us a moment 
      A B 
We need to do something sweet.

 E B Dbm A  (2x)
 
 B A 
  I have all I need
 E 
I want nothing more 
 B A E 
  Far beyond from them, here with you 
 Abm Dbm  
Would you stay
 A E B Dbm A 
Blow the world away 

 B A 
 This is all I want 
 E 
All I ever had 
 B A E 
 You and I right here a little more 
 Abm Dbm   
Here we'll stay 
 A E B Dbm A 
Something sweet is on the way 

 E B Dbm A E B Dbm A 
Beautiful, Powerful, feeling so strong 
      E B 
The stars close their eyes 
             Dbm A 
They don't need to see
 F# 
You are the reason 
      A 
My whole inspiration 
 F# 
You are the reason 
        A B 
We're making something sweet 

 E B Dbm A  (2x)

 B A 
  I have all I need
 E 
I want nothing more 
 B A E 
  Far beyond from them, here with you 
 Abm Dbm  
Would you stay
 A E B Dbm A 
Blow the world away 

 B A 
 This is all I want 
 E 
All I ever had 
 B A E 
 You and I right here a little more 
 Abm Dbm   
Here we'll stay 
 A E B Dbm A 
Something sweet is on the way 

 E B Dbm A B A 
  I have all I need
 E 
I want nothing more 
 B A E 
  Far beyond from them, here with you 
 Abm Dbm  
Would you stay
 A E B Dbm A 
Blow the world away 

 B A 
 This is all I want 
 E 
All I ever had 
 B A E 
 You and I right here a little more 
 Abm Dbm   
Here we'll stay 
 A E B Dbm A 
Something sweet is on the way 

 E B Dbm A  ('til the end) :)

Kailangan Kita Tabs by Sponge Cola V2

 Sorry for any inaccurate notes...just got this BY EAR...but still, ENJOY!! ;)

Intro:
      G
Sana ay iyong naririnig
     Bm                     Em7
Pusong ikaw lang ang pinipintig
         C9~
Tanging ikaw lang ang ligaya

*Chord Pattern: G-Bm-Em7-C9 [Figure out the timing]
D#|---------------------------------------------|
G#|----------------------------------------8~---|
C#|--5---------------5----------------5---------|
F#|-----4h5-------------4h5-------7-------------|
A#|-----------3~-------------5/7----------------|
d#|---------------------------------------------|

Verse:
[Repeat Chord Pattern (*)] [Acoustic]
Parang buhay ko'y may taning
Tuwing ika'y nalalayo sa'king tabi
Laging tinatanong sa tuwina:

Ikaw ba'y makakapiling ko
Ngayong gabing walang kasinlamig
At muling magigisnan ko bukas?

Then,

G      G/B     Em7
Bawat nakaw na sandali
      C9
Lagi kong hinihiling
         D
Ikaw sa piling ko'y mananatili

Chorus 1:
G   Bm      Em7
Kailangan kita
            C
'Pagkat ang buhay ko ay kulang
       D
Kung ika'y mawawala
G   Bm      Em7
Kailangan kita
         C
Sana pagdilat ko
   D
Ika'y nandito na

Verse:
[Repeat Chord Pattern (*)]
Sa aking bisig
Ikaw ay yayakapin ko buong higpit
Pangakong hindi ka bibitiwan

Then,

[Distorded]
    G       Bm
Hindi magmamaliw
    Em7        C9
Pag-ibig ko't himig
     G         Bm        C
Ang puso ko'y 'yong inangkin

Bridge:
           B    C
Tadhanang kakaiba
     C#        D
Sa aki'y 'tinakda
       B       C
Magmula nang ika'y dumating
      Cm
Oh giliw

[Do Chorus Chords here]

Solo:

[there's a PALM MUTE part here, insert here before the tab ;)]
D#|----------------------------------------------------|
G#|-------------------------------18-18/20-------------|
C#|--------------------------15~-------------19-19~----|
F#|---------------13h15p13-----------------------------|
A#|---------13h15--------------------------------------|
d#|---13h15--------------------------------------------|

D#|----------------------------------------------------|
G#|----------------------------------------------------|
C#|----17-15-17---19/20--19--17-15--17br--15-17-19~----|
F#|----------------------------------------------------|
A#|----------------------------------------------------|
d#|----------------------------------------------------|

   NOT SURE ABOUT THIS PART...FEELS LIKE MISSING A NOTE
D#|----------------------------------------------------|
G#|---------------------17-15--------------------------|
C#|----19-17-15---17-15---------15~~~------------------|
F#|----------------------------------------------------|
A#|----------------------------------------------------|
d#|----------------------------------------------------|

Back to Chorus [Still DISTORTED]

G   Bm      Em7
Kailangan kita
            C
'Pagkat ang buhay ko ay kulang
       D
Kung ika'y mawawala
G   Bm      Em7
Kailangan kita
             C
'Pagka't ang puso ko sayo'y
         D
Walang ililigaya pa    

Nobody Gets Hurt chords – Stephen Bruton

 Nobody Gets Hurt – Stephen Bruton
 G ///  F C  x 4

( G ) There’s a light on, in your ( C7 ) eyes that should not be there
( G ) Come any closer and I’m ( D7 ) afraid of what I’ll do
( G ) We don’t want to live our lives with ( C )lying and ( C7 )excuses

(Chorus)
( G ) Stay where you ( A ) are, Baby
( G ) Don’t say another ( A ) word
( C7 ) Do what I ( D7 ) say and nobody gets hurt

Now we both have someone waiting for us somewhere
While we’re standing at the crossroads of disaster and desire
We’re the least of all the trouble we’d be starting

(Chorus)

(Bridge)
( G ) Nobody gets ( Bb ) hurt; nobody gets ( G ) blamed
Nobody’s ( F ) standing in the mirror; ( D ) staring at the face of shame

Solo

(Bridge)

Now this ain’t the kind of hurt that time won’t get us over
You know that stopping now is the only right thing we can do
We’ll always share the secret wondering if it happened

(Chorus x 2)

Solo and out (chorus chords)

Katalis chords – Spider

 Intro
========
 Em Bm Em F# Em Bm Em F# G 



Verse 1
=========
 G Bm G F# 
   Bagaimana bisa ku melupakanmu
 G Bm F# 
   Pemilik wajah yang meruntun di kalbu
 G Bm G F# 
   Sekali tersenyum berzaman ku rindu
 G Bm F# 
   Dalam lena masih juga mimpikanmu


 Em Bm Em Bm 
   Semakin ku nafi semakin manjadi
 Em Bm Em F# 
   Semakin ku lawan semakin tertawan



Chorus 1
=========
 Em Bm Em Bm 
    Sedar, sedar     hujung mata
 Em Bm C#m F# 
    Tertitis tangisan tak terungkap kata



 Em Bm C#m F#  



Verse 2
=======
 G Bm Em F# 
   Tiap nafas mengutus ghairah dan rindu
 G Bm C#m F# 
   Mendesakku gadai maruah diriku
 G Bm Em F# 
  Haruskah ku tunduk mengalah padamu
 G Bm C#m F#     
  Sedang cinta menuntutku mendugamu


Chorus 2
=========
 Em Bm Em Bm 
    Sedar, sedar     hujung mata
 Em Bm C#m F# 
    Tertitis tangisan tak terungkap makna



Solo
=======
 G Bm C#m F# G Bm C#m F#  
Woooo..... OOo.....


Pre-Chorus 
===========
 Em Bm Em Bm 
    Janjikan ku dapat biar kau ku rayu
 Em Bm C#m F# 
  Kerana hidup tak bermakna tanpamu


Chorus 3
============
 Em Bm Em Bm 
    Sedar, sedar     hujung mata
 Em Bm C#m F# 
    Tertitis tangisan tak terungkap kata
 Em Bm Em Bm 
    Sedar, sedar     hujung mata
 Em Bm C#m F# 
    Tertitis tangisan tak terungkap makna
 Em Bm Em Bm 
    Sedar, sedar     hujung mata
 Em Bm C#m F# 
    Tertitis tangisan tak terungkap kata



Outro (sama as chorus)
=======
 Em Bm Em Bm Em Bm C#m F# 


chord prepared by:
Haireey "blakant" Hashnan

Nothing I Hold On Toclimb chords – Will Reagan And United Pursuit

 Verse 1:
 G Em 
I lean not on my own understanding
    C G 
My life is in the hands of the Maker of Heaven

Chorus:
           G 
        I give it all to You, God
         Em C G 
        Trusting that You'll make something beautiful out of me

Bridge 1:
        G 
I will climb this mountain
         Em 
With my hands wide open
        C 
I will climb this mountain
         G 
With my hands wide open

Bridge 2:
                         G 
There is nothing I hold on to
                         Em 
There is nothing I hold on to
                         C 
There is nothing I hold on to
                         G 
There is nothing I hold on to

May Tabs by Texas In July V2

 Texas In July - May
Standard tuning - EADGBe
Capo - None

Intro x1

e|---------0------------0h2h3-2--------3p2--------0--|
B|----3------3------3-----------3----------3------3--|
G|------0------0------0-----------0---------------0--|
D|--2------------2---------------------------2----2--|
A|----------------------------------2----------3--3--|
E|---------------------------------------------------|

e|---------0-------2-----2h3p2---------3p2-----------0--|
B|----3------3-------3---------3-----------3---------3--|
G|------0------0-----------------0-----------0-------0--|
D|--2------------2-----2-----------2-----------------2--|
A|-----------------------------------2---------0-0-2-3--|
E|------------------------------------------------------|

1st part x2

e|---------0------------0h2h3-2--------3p2-------0-0-00-0------|
B|----3------3------3-----------3----------3s5s3-3-3-33---3----|
G|------0------0------0-----------0--------------0-0-00-----0--|
D|--2------------2-------------------------------0-2-22-------2|
A|----------------------------------2------------0-3-33--------|
E|-------------------------------------------------------------|

e|---------0-------2-----2h3p2---------3p2------0-0-00-0------|
B|----3------3-------3---------3-----------3s3s-3-3-33---3----|
G|------0------0-----------------0--------------0-0-00-----0--|
D|--2------------2-----2-----------2------------0-2-22-------2|
A|-----------------------------------2----------0-3-33--------|
E|------------------------------------------------------------|

Pre-Chorus x1

e|--0-00-0------|
B|--3-33---3----|
G|--0-00-----0--|
D|--2-22-------2|
A|--0-33--------|
E|--------------|

Chorus x2

e|--3-33-333-222-333-3-33-333-222-333-3-33-333-222-333-3-33-333-333-333|
B|--3-33-333-333-333-3-33-333-333-333-3-33-333-333-333-3-33-333-333-333|
G|--0-00-000---------0-00-000---------0-00-000---------0-00-000-000-000|
D|--2-22-222---------0-00-000---------2-22-222---------2-22-222-222-222|
A|--2-22-222---------2-22-222---------3-33-333---------0-00-000-000-000|
E|--0-00-000---------3-33-333---------0-00-000---------0-00-000-000-000|

2nd part x1

e|---------0------------0h2h3-2--------3p2--------0--|
B|----3------3------3-----------3----------3------3--|
G|------0------0------0-----------0---------------0--|
D|--2------------2---------------------------2----2--|
A|----------------------------------2----------3--3--|
E|---------------------------------------------------|

e|---------0------------0h2h3-2--------3p2-------0-0-00-0------|
B|----3------3------3-----------3----------3s5s3-3-3-33---3----|
G|------0------0------0-----------0--------------0-0-00-----0--|
D|--2------------2-------------------------------0-2-22-------2|
A|----------------------------------2------------0-3-33--------|
E|-------------------------------------------------------------|

e|--0-00-0------|
B|--3-33---3----|
G|--0-00-----0--|
D|--2-22-------2|
A|--0-33--------|
E|--------------|

e|---------0------------0h2h3-2--------3p2-------0-0-00-0------|
B|----3------3------3-----------3----------3s5s3-3-3-33---3----|
G|------0------0------0-----------0--------------0-0-00-----0--|
D|--2------------2-------------------------------0-2-22-------2|
A|----------------------------------2------------0-3-33--------|
E|-------------------------------------------------------------|

e|---------0-------2-----2h3p2---------3p2------0-0-00-0------|
B|----3------3-------3---------3-----------3s3s-3-3-33---3----|
G|------0------0-----------------0--------------0-0-00-----0--|
D|--2------------2-----2-----------2------------0-2-22-------2|
A|-----------------------------------2----------0-3-33--------|
E|------------------------------------------------------------|

Chorus x2

e|--3-33-333-222-333-3-33-333-222-333-3-33-333-222-333-3-33-333-333-333|
B|--3-33-333-333-333-3-33-333-333-333-3-33-333-333-333-3-33-333-333-333|
G|--0-00-

Youre Gone chords – Trish Wannamaker

 You're Gone 
By: Trish Wannamaker


Capo 3rd fret

Intro
 Em Am F C Em AM 
You meant so much to me
 F C 
But know you're gone
 Em Am 
You're never going to see,
 F C 
The way I am because you're gone
 Em Am 
Time still passes by
 F C 
Even though you're not here

Instrumental
 Em Am F C Em A G D Em Am 
To me you're still here
 F C 
Even though you're not
 Em A 
There's nothing I can do
 G D 
I wish there was something,
 Em Am 
I could do to bring you back to me

 F C 
I need you more than you need me
 Em A 
Without you my world has fallen apart
 G D 
My world falls apart everyday because you're gone
 Em Am 
I miss you more and more,
 F C 
Because you're gone

SOLO
 Em Am F C Em Am 
If you weren't gone you'd be my world
 F C 
My world has fallen to pieces because you're gone
 Em Am 
Now that you're gone, my world is gone

 F C 
I miss you,I miss you,I really do
 Em Am 
Now that you're gone

Outro
 F C Em Am

Oh Henry Tabs by The Civil Wars V2

 -------------------------------------------------------------------------------
                             OH HENRY - The Civil Wars
-------------------------------------------------------------------------------
: Charlie Hillman      
 charliehillman100@hotmail.com

Tried out the other version and saw a few mistakes, and wasn't the most helpful 
tab to learn, so I decided to make my own based on his :)
I had a good stab at doing the strumming patterns, but to properly get it you have 
to listen to the song a bit. 

Tuning: DADGAD 
Capo on 3rd (Live version is on 5th)

D - Downstroke

U - Upstroke 


Intro                         

Play the first bar, then the bar for the first time only. Repeat the first bar, 
then playing the bar for the second 
time only. Do a few random strokes on that chord at the end leading into the verse. 

                              First Time Only                  Second Time Only
                              __________________               __________________
   D U  U D U  U D U  U D U  |  U D U  U D U  U D U  D U  D U |  U D U  D U  D U  D D 
                             |                                |                     
D|-0-0--0-0-0--0-0-0--0-0-0-|| -0-0-0--0-0-0--0-0-0--0-0--0-0-| -0-0-0--0-0--0-0----0--|
A|-0-0--0-0-0--0-0-0--0-0-0-|| -0-0-0--0-0-0--0-0-0--0-0--0-0-| -0-0-0--0-0--0-0----0--|
G|-2-2--2-2-2--2-2-2--2-2-2-|| -2-2-2--2-2-2--2-2-0--2-2--2-2-| -2-2-0--2-2--2-2----2--|
D|-0-0--0-0h3--0-0-0--0-0-0-|| -0-0-0--0-0h3--0-0-0--0-0--0-0-| -0-0-0--0-0--0-0--0-0--|
A|-0h3--0-0-0--0-0h3--0-0-0-|| -0-0h3--0-0-0--0-0-0--0-0--0-0-| -0-0-0--0-0--0-0--0-0--|
D|-0-0--0-0-0--0-0-0--0-0-0-|| -0-0-0--0-0-0--0-3/5--3-3--2-2-| -0-3/5--3-3--2-2--0-0--|

Verse 
                                   D  U D U  D   D  U  D
                                                                     
D|-0--------0---0---0--------------0--0-0-0--0---0--0--0--------------|
A|-0--------0---0---0--------------0--0-0-0--0---0--0--0--------------|
G|-2--------2---2---2--------------5--5-5-5--0---2--2--2--------------|
D|-0----0---0---0---4-few strokes--0--0-0-0--0---0--0--4-few strokes--|
A|-0----0---0---0---0--------------0--0-0-0--0---0--0--0--------------|
D|-0----0---0---0---0--------------5--5-5-5--4---3--0--0------------- |
   Oh the Grass is Green           Everywhere but underneath
   I got a wedding band           In the name of a wondering man 
 
                                     1.                   2.
                                     __________           _________
   D   D D    D   D U D U    D      |  U D   D D    D    |
                                    |                    |
D|----------------0-0-0-0----0-----|| -0-0---0-0----0----|-0--0--------|
A|----------------0-0-0-0----0-----|| -0-3p0-0-3p0--0----|-0--0--------|
G|-2-----2--------2-2-0-2----2-----|| -2-2---0-2----0----|-2--2--------|
D|-0---0-0----0---0-0-0-0----0-----|| -0-0---0-0----0----|-0--0--------|
A|-3p0-0-3p0--0---0-0-0-0----0-----|| -0-----------------|-0--0--------|
D|-0---0-0----0---0-3/5-3/2--0-----|| -0-----------------|-0--0--------|
            Oooh so   it    seems 
           I love the best I can


Chorus                                                                    1.
                                                                          _____________
                                                                         |
D|-2------------------0------------------2---------------0--------------|| -0-------------|
A|-2------------------0------------------2---------------0--------------|| -0-------------|
G|-2-few strokes------0-few strokes------2-few strokes---0-few strokes--|| -2-few strokes-|
D|-2------------------0------------------2---------------0--------------|| -0-------------|
A|-0------------------0------------------0---------------0--------------|| -0-------------|
D|--------------------5-----------------

St John Tabs by We Are The Fallen

 Verse 1

E/-----------------------------------------------------------------/
B/-----------------------------------------------------------------/
G/-----------------------------------------------------------------/
D/--0-0-0-0--0-0-0-0-----0-0-0-0--0-0-0-0-----0-0-0-0--0-0-0-0-----/
A/--0-0-0-0--0-0-0-0-----0-0-0-0--0-0-0-0-----0-0-0-0--0-0-0-0-----/
E/--0-0-0-0--0-0-0-0-----0-0-0-0--0-0-0-0-----0-0-0-0--0-0-0-0-----/

E/------------------------/
B/------------------------/
G/------------------------/
D/--0-0-0-0--0-0-0-0------/
A/--0-0-0-0--0-0-0-0------/
E/--0-0-0-0--0-0-0-0------/      X3


Pre-Chorus

E/------------------------------------------------------------------/
B/------------------------------------------------------------------/
G/--7-7-7-7-7-7-7-7-7-7-7-7-7-7-7-7-7-7-7-7-7-7-7-7-7-7-7-7-7-7-7-7-/
D/--x-x-x-x-x-x-x-x-x-x-x-x-x-x-x-x-x-x-x-x-x-x-x-x-x-x-x-x-x-x-x-x-/
A/--5-5-5-5-5-5-5-5-5-5-5-5-5-5-5-5-5-5-5-5-5-5-5-5-5-5-5-5-5-5-5-5-/
E/------------------------------------------------------------------/

E/------------------------------------------------------------------/
B/------------------------------------------------------------------/
G/--3-3-3-3-3-3-3-3-3-3-3-3-3-3-3-3-3-3-3-3-3-3-3-3-3-3-3-3-3-3-3-3-/
D/--x-x-x-x-x-x-x-x-x-x-x-x-x-x-x-x-x-x-x-x-x-x-x-x-x-x-x-x-x-x-x-x-/
A/--1-1-1-1-1-1-1-1-1-1-1-1-1-1-1-1-1-1-1-1-1-1-1-1-1-1-1-1-1-1-1-1-/
E/------------------------------------------------------------------/

E/------------------------------------------------------------------/
B/------------------------------------------------------------------/
G/--7-7-7-7-7-7-7-7-7-7-7-7-7-7-7-7-7-7-7-7-7-7-7-7-7-7-7-7-7-7-7-7-/
D/--x-x-x-x-x-x-x-x-x-x-x-x-x-x-x-x-x-x-x-x-x-x-x-x-x-x-x-x-x-x-x-x-/
A/--5-5-5-5-5-5-5-5-5-5-5-5-5-5-5-5-5-5-5-5-5-5-5-5-5-5-5-5-5-5-5-5-/
E/------------------------------------------------------------------/

E/--------------------------------------------------/
B/--------------------------------------------------/
G/--10-10-10-10-10-10-10-10-10-10-10-10-10-10-10-10-/
D/--x--x--x--x--x--x--x--x--x--x--x--x--x--x--x--x--/
A/--8--8--8--8--8--8--8--8--8--8--8--8--8--8--8--8--/
E/--------------------------------------------------/

E/-------------------------------------/
B/-------------------------------------/
G/--9-9-9-9-9-9-9-9-7-7-7-7-7-7-7-7----/
D/--x-x-x-x-x-x-x-x-x-x-x-x-x-x-x-x----/
A/--5-5-5-5-5-5-5-5-5-5-5-5-5-5-5-5----/
E/-------------------------------------/


Chorus

E/---------------------------------------------------/
B/---------------------------------------------------/
G/---------------------------------------------------/
D/---------------------------------------------------/
A/---------------------------------------------------/
E/---0--0--5--0--7--0--8--0--7--0--5--0--7--0--3-----/

E/---------------------------------------------------/
B/---------------------------------------------------/
G/---------------------------------------------------/
D/---------------------------------------------------/
A/---------------------------------------------------/
E/---0--0--5--0--7--0--8--0--7--0--5--0--5-7-3-------/

E/----------------------------------------------------------------------/
B/----------------------------------------------------------------------/
G/----------------------------------------------------------------------/
D/-------7---8----------7---5---------7---8----------7---5--------------/
A/---7-8---8--------7-8---8-------7-8---8--------7-8---8----------------/
E/----------------------------------------------------------------------/

E/----------------------------------------------------------------------/
B/----------------------------------------------------------------------/
G/----------------------------------------------------------------------/
D/---7-5----------------------------------------------------------------/
A/----------8-7-5-3------------------------------

Eyes On Fire solo chords – Zeds Dead

 First tab ever. So go easy on me. 
This is a mix between the Blue foundation version and the Zeds Dead remix. 
Obviously without the dubstep.
All Am7s are optional.
Capo in completely optional. (if you use one put it wherever suits you)
And the harmonic 'ahhh's at the end are hard to count. I know.
Enjoy! :D

Intro:
e|------------------------------------------------------------------------------|
B|------------------------------------------------------------------------------|
G|------------------------------------------------------------------------------|
D|-------2----0------------------0---2------------------------------------------|
A|--0-----------------3----3--------------0---------0--0------------3-----0-----|
E|------------------------------------------------------------3---3-------------|
      Am 
I'll seek you out
 F 
Flay you alive
 Am Am7 F 
 One more word and you won't survive
     Am 
And I'm not scared
    F 
Of your stolen power
 Am Am7 F 
 I see right through you any hour


         Am 
I won't soothe your pain
         F 
I won't ease your strain
           Am 
You'll be waiting in vain
       F 
I got nothing for you to gain


     Am 
I'm taking it slow
 F 
Feeding my flame
 Am Am7 F 
 Shuffling the cards of your game
     Am 
And just in time
 F 
In the right place
 Am Am7 F 
 Suddenly I will play my ace

 
        Am 
I won't soothe your pain
         F 
I won't ease your strain
           Am 
You'll be waiting in vain
       F 
I got nothing for you to gain


 Am 
Eyes on fire
      F 
Your spine is ablaze
 Am Am7 F 
 Felling any foe with my gaze
     Am 
And just in time
 F 
In the right place
 Am Am7 F         
 Steadily emerging with grace

This is the outro/tabbed part of the next verse.
e|------------------------------------------------------------------------------------------|
B|---------------------------------------------------------------------------------1--------|
G|--2-------0---2---0------------------------------------------2---2----0---0---------2-----|
D|-------------------------2---0----------0----2--------------------------------------------|
A|------------------------------------3-------------0---------------------------------------|
E|------------------------------------------------------------------------------------------|


 Am Am7 F Am Am7 F 
Ahhhh ah ah ah ah ah ah ah ah ahh, felling any foe with my gaze
 Am Am7 F Am Am7 F 
Ahhhh ah ah ah ah ah ah ah ah ahh,  Steadily emerging with grace

 Am Am7 F Am Am7 F 
Ahhhh ah ah ah ah ah ah ah ah ahh, felling any foe with my gaze
 Am Am7 F Am Am7 F 
Ahhhh ah ah ah ah ah ah ah ah ahh,  Steadily emerging with grace
Am to finish.

Hope you liked it! :D Comment any ocrrections :)

Crystallized chords – Young The Giant V2

 This sounds close enough I hope you guys enjoy it

 C : 032010
 Em : 022000
 Am : 002210
 F : 133211
 G : 320033
 Dm : 000231


Intro:  C Em Am F  2x

 Dm C G 
Crawl back to life,
                   F 
It's been far too long
 C G 
Crystallized
                   Dm 
Round interstellar Moons
 C G F 
Seed of light into your atmosphere
            C G 
What's your World like?
                      Dm C G 
Is the house we've built still here?

Girl you know

           C       
When the beat of my drum
           Em 
Meets the beat of your heart
        Am F 
You know I couldn't love any other - any other
          C 
This is where I come from
        Em 
This is where I belong,
           Am 
With the beat of your drum
      F 
Not any other

 Dm C G 
Fall through the sky
                   F 
Little specks below
 C G Dm 
Magnify - the further down I go
         C G 
I feel it in my bones
                F 
Can you feel too?
               C G 
Is this the world I know?
                     Dm C G 
Is the house we've built still here?
                F C G 
Is the human race sincere?

           C       
When the beat of my drum
           Em 
Meets the beat of your heart
        Am F 
You know I couldn't love any other - any other
          C 
This is where I come from
        Em 
This is where I belong,
           Am 
With the beat of your drum
      F 
Not any other

 F C G 
Feel the force of time
                    F 
Weighing down my mind
     C G F 
Tears you cry, screaming at the sky
    C G 
Come outside,
                       F C G 
The rays are shinning br-i-ght

 C Em Am F C Em Am F C 
Not any other
            Em Am F 
Feels like hooooooome
            C Em Am F 
Where I belooooooong

Oh oh

           C       
When the beat of my drum
           Em 
Meets the beat of your heart
        Am F 
You know I couldn't love any other - any other
          C 
This is where I come from
        Em 
This is where I belong,
           Am 
With the beat of your drum
      F 
Not any other

 F C G 

(Dedicated to GB)

Social Silence Tabs by Washya

 -----------------------------------------------------------------------------
                                Social Silence - Washya
-----------------------------------------------------------------------------
Tuning: Drop B (BF#BEG#C#)
Intro
B|------------------------------------|
F#|-----------------------------------|
B|------------------------------------|
E|------------------------------------|
G#|--------5b*--------------7b*-------|
C#|-00-000-----0h3p0-00-000-----0h3p0-|x3

Part 2
B|----------------------------------------|
F#|---------------------------------------|
B|----------------------------------------|
E|-----------3333---------------5555------|
G#|-55556666------1111/55556666------3333-|
C#|----------------------------------3333-|x3
PM  ******** **** **** ******** **** **** 

Verses
B|-------------|   |---------------|
F#|------------|   |---------------|
B|-------------|   |---------------|
E|--------7/10-|   |---------------|
G#|-5-5/6-5/8--|   |-5-6-8-3-5-6-1-|
C#|-5-5/6------|x3 |-5-6-8-3-5-6-1-|
                  PM * *   * * * 

Chorus
B|-----------------------------------------------------------|
F#|----------------------------------------------------------|
B|-----------------------------------------------------------|
E|--------------------55555555-88888888-----------555--------|
G#|-55555555-11111111-33333333-66666666-66-666666-333-3333/6-|
C#|-55555555-11111111-------------------66-666666-----3333/6-|
PM                                         ******

Solo
B|-----------------------------------------------------------------16---17~-|
F#|-------------------------------------------------------12-13-15---15-----|
B|------------------------------------------------9-11-13-------------------|
E|--------------------7-8-10--------7-8-10-7-8-10---------------------------|
G#|-------5-7-8-5-7-8--------7-8-10-----------------------------------------|
C#|-5-7-8-------------------------------------------------------------------|
PM  * * * * * * 

B|--17-15-14----14h17p14h17p14-------------16-------16--------15-------17~-|
F#|----------15----------------15h17p15p14----17p14----17p14-----14p12-----|
B|-------------------------------------------------------------------------|
E|-------------------------------------------------------------------------|
G#|------------------------------------------------------------------------|
C#|------------------------------------------------------------------------|

Verses
B|-------------|   |---------------|
F#|------------|   |---------------|
B|-------------|   |---------------|
E|--------7/10-|   |---------------|
G#|-5-5/6-5/8--|   |-5-6-8-3-5-6-1-|
C#|-5-5/6------|x3 |-5-6-8-3-5-6-1-|
                  PM * *   * * * 

Chorus
B|-----------------------------------------------------------|
F#|----------------------------------------------------------|
B|-----------------------------------------------------------|
E|--------------------55555555-88888888-----------555--------|
G#|-55555555-11111111-33333333-66666666-66-666666-333-3333/6-|
C#|-55555555-11111111-------------------66-666666-----3333/6-|
PM                                         ******

Thank You Tabs by The Katinas V3

 Thank You (The Katinas) Tab
Jayesslee Version
 Emmanuel Tse
Capo/Tuning: Capo 4- Tabs are in reference to capo, Standard Tuning
This is just my take on Jayesslee’s version, I recommend listening to the video to get 
the timing of the chords down, for example, the chord transitions seem to be slower in 
the chorus
Also, I didn’t know how to show a slap, so for the sake of this tab, the “x” means slap

Intro
=====
  G                      D                         Am               D
|----3--x--3----------------3---x---2-----2h3-----------3--x--3-------3----|
|----3--x--3---------3------3---x---3---------3----0h1--1--x--1----------3-|
|-------x----------0--------2---x---2---2----------2----2--x--2-----0------|
|-------x------0h2-------0------x--------------------------x---------------|
|-------x-----------------------x--------------------------x---------------|
|-3-----x--3--------------------x--------------------------x---------------|


Verse 1
=====
  G                                       D
|-----3----x-----3----------------------------3----x----2-------2h3-------|
|-----3----x-----3-----------3----------------3----x----3------------3----|
|----------x---------------0------------------2----x----2----2------------|
|----------x-----------0h2----------------0--------x----------------------|
|----------x---------------------------------------x----------------------|
|-3--------x-----3---------------------------------x----------------------|
Just a little while longer I wanna pray, can't get you off my mind so I came to say

  Am                          D
|---------3-----x-----3-----------3------x----2-------2h3-------|
|-0h1-----1-----x-----1-----------3------x----3------------3----|
|-2-------2-----x-----2-----------2------x----2----2------------|
|---------------x-------------0----------x----------------------|
|---------------x------------------------x----------------------|
|---------------x------------------------x----------------------|
Thank you Lord, just for loving me

  G                                       D
|-----3----x-----3----------------------------3----x----2-------2h3-------|
|-----3----x-----3-----------3----------------3----x----3------------3----|
|----------x---------------0------------------2----x----2----2------------|
|----------x-----------0h2----------------0--------x----------------------|
|----------x---------------------------------------x----------------------|
|-3--------x-----3---------------------------------x----------------------|
Many times I do forget, every need that you have met

  Am                          D
|---------3-----x-----3-----------3------x----2-----------------|
|-0h1-----1-----x-----1-----------3------x----3-----------------|
|-2-------2-----x-----2-----------2------x----2-----------------|
|---------------x-------------0----------x----------------------|
|---------------x------------------------x----------------------|
|---------------x------------------------x----------------------|
Oh thank you Lord, I know you’re showing me


Pre-Chorus 1
=====
  G   C                   D
|----------------------------------2----------------------------|
|-3------------3----------------3-------------------------------|
|-----------0----------------2----------------------------------|
|--------0----------------0-------------------------------------|
|-2---3---------------------------------------------------------|
|---------------------------------------------------------------|
You are there when I am down and out

  G           C
|-----3--x----3----------3--------------------------------------|
|-----3--x----3--------------3----------------------------------|
|--------x-----------0------------------------------------------|
|--------x------------------------------------------------------|
|-2------x----3-------------------------------------------------|
|--------x-----------------------------

Rescue You chords – The Weeknd

 Intro
 Am F C G 

Verse 1
        Am 
Saw my signal from afar
        F 
Lonely heart sitting at the bar
             C G 
I'ma try to save you from his flames
           Am 
Come with me, you don't have to think
            F 
Had a long day I could tell by your drink
                C 
Take a look at me, I promise I will be,
                    G 
All the things you wanted him to be

Pre Chorus
    Am F 
Do you, always seem to fight cause I, can tell

Wipe away 'em tears and I,
 C 
Can help, help you through your misery,
       G 
Hospitality that you need from me
    Am F 
And girl, I can hear the pain inside, your voice
                               C G 
Argue every night, but that's a choice and I can take it all away

Chorus
         Am 
Let me rescue you,
       F 
I can see the truth
       C G 
I can see right through the pain
         Am 
Let me rescue you,
        F 
Let me fill his shoes,
         C G 
No more tears running down your face
 Am 
I can take you there,
         F 
Girl, fly you through the air
       C G 
Girl, I can be your superhero
 Am 
Fly you through the stars
     F 
Let me light up your darkness
 C G 
I can be your superhero

Verse 2
       Am 
Tryna free you from his cage,
        F 
It's a mental prison break
               C G 
Baby, we can leave, my heart is the key
         Am 
Your a damsel in distress
                  F 
Looking at your eyes I can see the stress
                C 
Take a look at me, promise I will be
                    G 
All the things you wanted him to be

Pre Chorus
     Am F 
Do you, always seem to fight cause I, can tell

Wipe away 'em tears and I,
        C 
Can help, help you through your misery,
      G 
Hospitality that you need from me
        Am F 
And girl, I can hear the pain inside, your voice
                               C G 
Argue every night, but that's a choice and I can take it all away

Chorus
        Am 
Let me rescue you,
       F 
I can see the truth
         C G 
I can see right through the pain
        Am 
Let me rescue you,
        F 
Let me fill his shoes,
         C G 
No more tears running down your face
 Am 
I can take you there,
        F 
Girl fly you through the air
       C G 
Girl, I can be your superhero
 Am 
Fly you through the stars
       F 
And make light of your darkness
       C G 
Girl, I can be your superhero

      Am 
I can take you away (take you away)
               F 
from the darkness and the pain (darkness and the pain)
            C G 
Girl, I promise every moments for you (Ooh)
          Am 
Show you never-ending love (never-ending love)
       F 
I can bring you from above (bring you from above)
       C G 
Girl, I can heal your wounds

Chorus
        Am 
Let me rescue you,
       F 
I can see the truth
         C G 
I can see right through the pain
    

Wrecking Ball Tabs by Sungha Jung

 Miley Cyrus - Wrecking Ball (Sungha Jung) 

Tuning:DADGBe

Capo: 3rd Fret



Intro:

e-------------------------------------------------------------------------|
B--3-3-3-3-3-3-3-3--3-3-3-3-3-3-3-3---2-2-2-2-2-2-2-2--3-3-3-3-3-3-3-3----|
G--2-2-2-2-2-2-2-2--2-2-2-2-2-2-2-2---2-2-2-2-2-2-2-2--0-0-0-0-0-0-0-0----|
D-------------------------------------------------------------------------|
A--2-----------2----0-----------0-----0-----------0----5-----------5------|
D-------------------------------------------------------------------------|

VERSE: 

e-2-------2-------2-------2-----------------------------------------------|
B-----0-------0-------------------0-2---------2-0-2-3-----0---------------|
G-2-------2-------2---2---2---2-------------------------------------------|
D-------------------------------------------------------------------------|
A-2-2-2-2-2-2-2-2-2-2-0-0-0-0-0-0-0-0-0-0-0-0-0-0-0-0-0-0-5-5-5-5-5-------|
D-------------------------------------------------------------------------|




Don't you ever say I just walked away
I will always want you
I can't live a lie, running for my life
I will always want you

e-------------------------------------------------------------------  (---)
B-0---0---0-------0---0---0-----------------------------------------  (-0-)
G-----------2---------------2-----2---2---2-0-----------------------  (-0-)End second time with this
D-------------4---------------4-----------------4-------------------  (-0-)
A-2-2-2-2-2-2-2-2-----------------0-0-0-0-0-0-0-0-0-5-5-5-5-5-5-5---  (-5-)
D-----------------0-0-0-0-0-0-0-0-----------------------------------  (---)


CHORUS:

e-3-3-3-3-3--3---2-2---0--0-0---3-2p0-----3---2-2------------|
B-0-0-0-0-0--3---3-3---0--0-0---0-----3---3---3-3---0--0-0---|
G-0-0-0-0-0--2---2-3---2--2-2---2---------2---0-0---0--0-0---|
D-0-0-0-0-0--0---0-0---2--2-2---2---------0---0-0---0--0-0---|
A-5-5-5-5-5------------0--0-0---0---------2---2-2---5--5-5---|
D------------------------------------------------------------|

e-3-2p0----3---2-2---0--0-0---3-2p0----------3-2-0-3---3-3---|
B-0-----3--3---3-3---0--0-0---0-----3--3---3-3-3-3-0---0-0---|
G-0--------2---2-2---2--2-2---2--------2---2-2-0-0-0---0-0---|
D-0--------0---0-0---2--2-2---2--------0---0-0-0-0-0---0-0---|
A-5------------------0--0-0---0--------2---2-2-2-2-5---5-5---|
D------------------------------------------------------------|

e---------3-2-0-3---
B-3-3---3-3-3-3-0---
G-2-2---2-2-0-0-0---
D-0-0---0-0-0-0-0---
A-2-2---2-2-2-2-5---
D-------------------

REPEAT VERSE AND CHORUS


BRIDGE

I never meant to start a war
I just wanted you to let me in
And instead of using force
I guess I should've let you win
I never meant to start a war
I just wanted you to let me in
I guess I should've let you win

e----------------------3-2-2p--0-----------------3-2-2p--0-------|
B-2---3-----3--3---3---------------2---3-3---3---------------2---|
G---0-0-0---0--0-0-0-0-------------2---2-2-2-2-2-------------2---|
D--------------------------------0-------------------------0-----|
A-----5----5---5-------------2-------2---2-------------0---------|
D-5--------------------------------------------------------------|

e-------------3-2-2p--0--------------------3-2-2p--0-------|
B--3--3---3---3-----------2-----2--3---3---3-----------2---|
G--2--2-2-2-2-------------0-----0--2-2-2-2-------------0---|
D-----------------------0-----0----------------------0-----|
A-0---0----------------------------------------------------|
D-------------------4--------------4-------------5---------|

e--------------3-2-2p--0-------------------3-2-2p--0-----0-----|
B---2--3---3---------------2----3--3---3-------------2---------|
G---0--2-2-2-2-------------2----2--2-2-2-2-------------3---3---|
D-0----------------------0-------------------------------------|
A--------------------2--------0----0---------------------------|
D------5---------------------------------

Rocket Tabs by Tori Kelly V2

 If I could build a rocket, I would

Put all my dreams inside it, I would


----------------------------------------------|
-12-12-12-12-12-12--10-10---5-5-5-5-5-5-5-5---|
----------------------------------------------|
----------------------------------------------|repeat x2
--10-10-10-10-10-10--8--8--3-3-3-3-3-3-3-3----|
----------------------------------------------|

Maybe I could travel far into something new

Hang on to a shooting star, bursting into view

Just me and my fickle heart, lonely never felt so right

I would go anywhere tonight

--------------------------------------------------|
-5-5-5-5-5-5-5-5-5-5-5-5-7-7-8-8-5-5-5-5-7-7-8-8--|
--------------------------------------------------|
--------------------------------------------------|repeat x2
3-3-3-3-3-3-3-3-3-3-4-4-6-6-7-7-3-3-4-4-6-6-7-7---|
--------------------------------------------------|


If I could be a pilot, I would

Open up the sky see what's inside it I would

----------------------------------------------|
-12-12-12-12-12-12--10-10---5-5-5-5-5-5-5-5---|
----------------------------------------------|
----------------------------------------------|repeat x2
--10-10-10-10-10-10--8--8--3-3-3-3-3-3-3-3----|
----------------------------------------------|

Cuz' everyone's out doing things and I'm stuck in my room

But if this bed grew some wings then what could I not do?

Just me and my fickly heart, lonely never felt so right

I would go anywhere tonight

--------------------------------------------------|
-5-5-5-5-5-5-5-5-5-5-5-5-7-7-8-8-5-5-5-5-7-7-8-8--|
--------------------------------------------------|
--------------------------------------------------|repeat x2
3-3-3-3-3-3-3-3-3-3-4-4-6-6-7-7-3-3-4-4-6-6-7-7---|
--------------------------------------------------|

Oooooooo

Oooooooo

--------------------------------------------------|
--0-0-0-0-1-1-1-1-3-3-3-3-3-3-3-3-----------------|
--------------------------------------------------|
--------------------------------------------------|
--------------------------------------------------|
-0-0-0-0-1-1-1-1-3-3-3-3-3-3-3-3------------------|


If I could build a rocket I would

I would go anywhere tonight

I would go anywhere tonight

Mmmmm

I would go anywhere

----------------------------------------------|
-12-12-12-12-12-12--10-10---5-5-5-5-5-5-5-5---|
----------------------------------------------|
----------------------------------------------|repeat x2
--10-10-10-10-10-10--8--8--3-3-3-3-3-3-3-3----|
----------------------------------------------|


missing a little but for the most part its the right thing. enjoy

Replay chords – Zendaya Coleman

 ZENDAYA - Replay Chords

CHORDS USED
 F#m : 244222
 E : 022100
 D : 000232
 A : 002220

 D 
Make it stop
 F#m E D 
Sounds so good, I just can't take no more
 F#m E D F#m E 
Turn it down, turn it up, I don't know
 D F#m E 
I don't know (Know)

 D 
But don't stop
 F#m E D F# E 
Don't move, just keep it there (Right there)
                D F#m E 
Keep it right there (Oh)
                 D F#m E 
Keep it right there

[PRE-CHORUS]
            D 
(I wanna) put you on repeat
          F#m E 
Play you everywhere I go
 D 
Everywhere I go
         F#m E 
Play you everywhere I go
 D 
Put you on repeat
           F#m E 
Play you everywhere I go
 D F#m E 
Everywhere I go (Everywhere I go)


[CHORUS]
 D 
Yeah
       F#m E D 
Wanna put this song on replay
        F#m E D 
I can listen to it all day
         F#m E D 
I can listen to you all day
        F#m E 
Hear you all day
 D 
Yeah
      F#m E D 
Wanna put this song on replay
          F#m E D 
We can start all over again
      F#m E 
And again
 D 
Yeah
        F#m E D 
Wanna put this song on re

 D 
Don't stop (Stop)
 F#m E D 
Turn it on, turn it up, make it louder (Yeah)
 F#m E D 
I don't wanna miss a single thing
 F#m E D F#m E 
I wanna hear every melody (Yeah)
 D 
Beating (Beating)
 F#m E 
Beating so loud you can
 D F#m E 
Feel it (Feel it)(See it)
 D F#m E 
Beating (Beating)(Beating)
 D 
Beating for you

[PRE-CHORUS]
            D 
(I wanna) put you on repeat
          F#m E 
Play you everywhere I go
 D 
Everywhere I go
         F#m E 
Play you everywhere I go
 D 
Put you on repeat
           F#m E 
Play you everywhere I go
 D F#m E 
Everywhere I go (Everywhere I go)


[CHORUS]
 D 
Yeah
       F#m E D 
Wanna put this song on replay
        F#m E D 
I can listen to it all day
         F#m E D 
I can listen to you all day
        F#m E 
Hear you all day
 D 
Yeah
      F#m E D 
Wanna put this song on replay
          F#m E D 
We can start all over again
      F#m E 
And again
 D 
Yeah
        F#m E D 
Wanna put this song on re

 D 
Give it off
                        A 
Feel it all crashing down (Down, down, down)
 D 
I'm so lost
                      A E 
I'm so lost in your sound

 D <