Month: January 2014

Invisible chords – Clay Aiken V4

 Dm C F C Dm C Bb 
What cha doin tonight, I wish I could be a fly on your wall,
 Dm C F C Bb C 
Are you really alone, who's stealin your dreams, why can't I dream,
              Dm 
you into my life, (so tell me),
 Bb C Dm 
What would it take to make you see, that I'm alive,


Ref.:         Bb  -  C  -  Dm 
If I was invisible,
                    Bb C Dm 
Then I could just watch you in your room,
              Bb  -  C F Bb 
If I was invincible, I'd make you mine tonight,
                     Bb  -  C  -  Dm 
If hearts were unbreakable,
                    Bb C Dm 
Then I could just tell you where I stand,
         C Bb 
I would be the smartest man,
             Gm Dm  -  C  -  F  -  C 
If I was invisible, wait, I already am,




(verse 2)

Saw your face in the crowd, I call out your name, you don't hear a sound,

I keep tracin your steps, each move that you make,

Wish I could read what goes through your mind,

Wish you could touch me with the promise of your life,




             Bb  -  C  -  Dm 
If I was invisible,
                    Bb C Dm 
Then I could just watch you in your room,
              Bb  -  C 
If I was invincible,
      C F Bb 
I'd make you mine tonight,
                     Bb  -  C  -  Dm 
If hearts were unbreakable,
                    Bb C Dm 
Then I could just tell you where I stand,
         C Bb 
I would be the smartest man,
             Gm Bb 
If I was invisible, wait, I already am,

 Bb  -  C  -  Dm  -  Bb  -  C  -  Dm 

bridge
 Bb Dm 
Reach out, but you don't even see me,
              Bb Dm 
Even when I scream out, baby you don't hear me,
       Gm Bb 
I am nothing without you,
         Gm 
Just a shadow passin through,
          Bb  -  C  -  Dm  -  Bb  -  C  -  Dm 
Invisible,


             Bb  -  C  -  Dm 
If I was invisible,
                    Bb C Dm 
Then I could just watch you in your room,
              Bb  -  C 
If I was invincible,
      C F Bb 
I'd make you mine tonight,
                     Bb  -  C  -  Dm 
If hearts were unbreakable,
                    Bb C Dm 
Then I could just tell you where I stand,
         C Bb 
I would be the smartest man,
             Gm Bb 
If I was invisible, wait, I already am, 

She Aint You chords – New Hollow V2

 -------------------------------------------------------------------------------
                              She Aint You
                            - New Hollow
-------------------------------------------------------------------------------
: phga

Guitar parts as figured from watching a live performance on YouTube by New Hollow

I've included both the picking, (which is how its played by the lead) and the chords
(which is played by the back up during verses and is easier to sing
with) as well as the words so you can sing your heart out

Tuning: Standard

--A's are easiest played as an F shape bar chord on 5th fret
--B*'s are B's that are easier played as an F shape bar chord on 7th fret


Intro/ Verse 1:

    Back up guitar plays a high accenting part
    in the beginning that goes like this:

    e|----12------------14--12------------11--12----------|
    B|----------------------------------------------------|
    G|----------------------------------------------------|
    D|----------------------------------------------------|
    A|----------------------------------------------------|
    E|----------------------------------------------------|

Lead

e|----------------------------------------------------|
B|----------------------------------------------------|
G|----------------------------------------------------|  Repeat throughout
D|--------6--------6-----6--------6-----------9--6----|  verses
A|------7-------7-----7--------7-----7-----6----------|
E|----0------0--------------9-----------7-------------|


              ---OR---
E                        C#m       B
  Its been a while since I saw your face
E                             C#m       B
  Maybe that's helped me move on
E                        C#m      B
  But I met a girl not a day too late
E                        C#m       B
  And of her I'm awfully fond


       E          C#m         B
And I hope my remedies don't show
       E             C#m     B
As I try to, try to, let you go
             E           C#m      B
Cause its awkward, oh so hard to see
      A      B*
The similarities


Chorus 1:

                C#m                      A     
She's got your hair, and she's got your eyes,
                          E                    B
      and she's got your exact same horoscope sign,
            C#m                     A    
She may be pretty, she's something new,
                           E          B
      but that means nothing..... 

She aint you


Verse 2:

e|----------------------------------------------------|
B|----------------------------------------------------|
G|----------------------------------------------------|  Repeat throughout
D|--------6--------6-----6--------6-----------9--6----|  verses
A|------7-------7-----7--------7-----7-----6----------|
E|----0------0--------------9-----------7-------------|

                   ---OR---
E                       C#m        B
  I find it hard not to look your way
E                       C#m        B
  But I get in what I can
E                             C#m      B
  And I find this song just a bit cliché
E                              C#m        B
  But I pray that you'll understand

                E            C#m      B
That there's nothing(nothing)on her mind
           E                 C#m      B
and she's far too, (far too) far too kind
         E              C#m       B
if you miss me, kiss me one more time
     A                 B*
at least for old time sake


Chorus 1:

                C#m                      A     
She's got your hair, and she's got your eyes,
                          E                    B
      and she's got your exact same horoscope sign,
            C#m                     A    
She may be pretty, she's something new,
                           E          B
      but that means nothing..... 

She aint you



INSTRUMENTAL 

Scars chords – Saywecanfly V2

 -------------------------------------------------------------------------------
                             SCARS - SayWeCanFly
-------------------------------------------------------------------------------
: kingdaddel
 kingdaddel95@gmx.net

Tuning: Standard, Capo 6th fret!

Intro:  F C Am F G C 

Verse 1:
        F G C Am 
Those scars on your wrists are the mark of the world
     F G C 
An ocean that's left you so torn
       F G C Am 
But remember the heart you brought into this world
     F G C C 
the same one as when you where born.

Chorus:
( G )*     F C 
How confused you must be
          G Am 
Finding love in the blood that you bleed
          F C 
But the truth is that I see
          G  
Why you say that 'it's hard to be me'
         F C 
And we all make mistakes
           G Am 
It's not you but this world you should hate
( C )*        F G C Am F G C 
You're as beautiful as you were yesterday. 

(*: strum once, let it ring out as you change to F)

Verse 2:
           F G C Am 
And those tears in your eyes are the product of lies
              F G C   
You've been lead to believe that they're true
         F G C Am 
But remember the light you brought into this world
    F G C C 
I promise it will get you through.

Chorus:
( G )*     F C 
How confused you must be
          G Am 
Finding love in the blood that you bleed
          F C 
But the truth is that I see
          G  
Why you say that 'it's hard to be me'
         F C 
And we all make mistakes
           G Am 
It's not you but this world you should hate
( C )*        F G C 
You're as beautiful as you were yesterday. 

(*: strum once, let it ring out as you change to F)


Outro:  G Am F G C

Rodeo Moon chords – Toby Keith

 G D Em D 
I took her daddy’s old two-horse trailer 
             C D 
I patched a place in the floor that was bare 
        G D Em D 
And we loaded up her barrel pony 
       Am D 
And a riggin’ bag is all that I had 
    C G 
We left with our suitcases filled with desire 
 C D 
Four hundred dollars, two good spare tires 

(Chorus)
         G D Em C 
Now our windshield’s a painting that hangs in our room 
    G D Em C 
It changes with each mile like a radio tune 
    C D G C 
With God up above, we’ll make it on love 
 Am D G 
Under the rodeo moon 

Pre-verse:  G D Em D C D G 

Sometimes we sleep in a hotel 
When we’re ridin’ that hot hand of luck 
Sometimes we crash at a friend’s house 
Sometimes we just sleep in the truck 
At nighttime you’ll find us out in the fast lane 
Stayin’ one step ahead of snow, wind, and rain 

(Chorus)

Instrumental:  G D Em D C D  |  G D Em A D 

(Bridge)
 C G 
Yeah we left with our suitcases filled with desire
 C D 
Four hundred dollars, two good spare tires 

(Chorus)
 Am D G 
Under the rodeo moon

Mcfly Medley chords – Mcfly

 Compiled by Tom Scothern

 C Am F G                                     
it's all about you, it's all about you baby.
 C Am F G                   
it's all about you, it's all about you.
 C E Am C                 
yesterday you asked me something i thought you knew
      F G C       
so i told you with a smile it's all about you
 C E Am C               
then you whispered in my ear and told me to
          F G C C7            
said you made my life worthwhile it's all about you

 C Am F G                                     
it's all about you, it's all about you baby.
 C Am F G                   
it's all about you, it's all about you.
 C E Am C                 
yesterday you asked me something i thought you knew
      F G C       
so i told you with a smile it's all about you
 C E Am C               
then you whispered in my ear and told me to
          F G                            
said you made my life worthwhile it's all about you

(Guitar solo)

    F Fm 
And I would answer all your wishes
 C E Am 
If you asked me   to
         D7 
But if you deny me one of your kisses
 G G7 
Don’t know what I’d do   so

 C E Am         
Hold me close and say three words like you used to do
         F G 
Dancing on the kitchen tiles,
         F G 
Yes you made my life worthwhile
            F G            
So I told you with a smile...
               C 
It’s all about you


 C Am F G                                     
it's all about you, it's all about you baby.
 C Am F G                   
it's all about you, it's all about you.

 C Cadd9 C Cadd9 C Cadd9 C Cadd9 C Cadd9 C Cadd9 C Cadd9 C Cadd9 
Recently I've been,              hopelessly reaching,
 G F C Cadd9 C Cadd9 
out for this girl, who’s outta this world, believe me.
 C Cadd9 C Cadd9 C Cadd9 C Cadd9 
She's got a boyfriend,            he drives me round the bend,
      G F C Cadd9 C Cadd9 
Cos hes 23, he's in the marines, he'd kill me.
 F C F C D7 G 
So many nights now, i find myself thinking about her now.

CHORUS
         C E 
Cos Obviously, she's outta my league
                F D  
But how can i win she keeps dragging me in, and i know i
 F G C E 
never will be good enough for her, no no.
 F Fm C Cadd9 C Cadd9 
never will be good enough for her


 C Cadd9 <

Rocket Tabs by Tori Kelly V4

 ROOOOCKET

-VERSE 1&2-
e|-------------------------------------------------------------|
B|-------12--12--12--12--12--12--7--7--5--5--5--5--5--5--5--5--|
G|-------------------------------------------------------------|
D|-------------------------------------------------------------|(repeat 2x)
A|-----10--10--10--10--10--10--5--5--3--3--3--3--3--3--3--3--3-|
E|-------------------------------------------------------------|

e|-------------------------------|
B|-------5--5--5--5--7--7--8--8--|
G|-------------------------------|
D|-------------------------------|(repeat 2x)
A|-----4--4--3--3--5--5--7--7----|
E|-------------------------------|

e|----------------------------------------------------------------2--3---|
B|-------5--5--5--5--7--7--8--10--5--5--5--5--1--1--1--1--0--0--0--0--0--|
G|-----------------------------------------------------------------------|
D|-----------------------------------------------------------------------|
A|-----4--4--3--3--5--5--7--9--3--3--3--3--0--0--------------------------|
E|------------------------------------------------1--1--3--3--3--3--3----|

-BRIDGE- (repeat 2x)
e|---------------------------------------2--3---|
B|-------3--3--3--3--1--1--1--1--0--0--0--0--0--|
G|----------------------------------------------|
D|----------------------------------------------|
A|-----1--1--1--1--0--0-------------------------|
E|-----------------------1--1--3--3--3--3--3----|

last part ehh "If I could build a rocket I would, I would go anywhere tonight" XD
e|-------------------------------------------------------------|
B|-------12--12--12--12--12--12--7--7--5--5--5--5--5--5--5--5--|
G|-------------------------------------------------------------|
D|-------------------------------------------------------------|
A|-----10--10--10--10--10--10--5--5--3--3--3--3--3--3--3--3--3-|
E|-------------------------------------------------------------|

e|-------------------------------------------------------------------|
B|-------1--1--1--1--0--0--0--0--1--1--1--1--5--5--5--5--3--3--3--3--|
G|-------------------------------------------------------------------|
D|-------------------------------------------------------------------|
A|-----0--0--------------------0--0--------3--3--3--3--1--1--1--1----|
E|-----------1--1--3--3--3--3--------1--1----------------------------|

e|-------------------|
B|-------1--1--1--1--|
G|-------------------|
D|-------------------|
A|-----0--0----------|
E|-----------1--1----|

HAVE FUN ! (:

LYRICS

-VERSE 1-
If I could build a rocket I would
Put all my dreams inside it I would
Maybe I could travel far into something new
Hang onto a shooting star bursting into view
Just me and my fickle heart lonely never felt so right
I would go anywhere tonight

-VERSE 2-
If I could be a pilot I would
Unlock the sky see what’s inside it I would
Cuz everyone’s out doing things and I’m stuck in my room
But if this bed grew some wings then what could I not do
Just me and my fickle heart lonely never felt so right
I would go anywhere tonight

-BRIDGE-
Oooooh
Oooooh


If I could build a rocket I would
I would go anywhere tonight
I would go anywhere tonight
Mmhhmm
I would go anywhere

Youve Fallen For Me chords – Jung Yong Hwa Of Cn Blue V5

 Please Rate this Chords for You've Fallen For Me .Thanks :)

Capo 3rd fret

          G Em 
Uyeonhido geureohke uri shijakdwennabwa
   
Cheoeumen sarangil kkeorago
     C 
Kkumedo mollanneunde
     D 
Geuge sarangiljuriya

             G Em 
Shijangi mak jakkuman dugeundugeun georigo
   
Nalbomyeon misoman heureugo
     C 
Nimamdo moreuge nal
     D 
Saranghage dwengeoya

           C D 
Neo naege banhaesseo banhaesseo
           G Em 
Dalkkomhan nae sarange noga beoryeosseo
           C D 
Neo naege banhaesseo banhaesseo
           G Em 
Hwangholhan nae nunbiche chwihae beoryeosseo

 C D 
See my eyes
 G Em 
Neon naege ppajyeosseo OH
 C D 
See my eyes
 G Em 
Neo naege banhaesseo OH

              G Em 
Sarangeun neul gabjagi unmyeong cheoreom onabwa

Eoneunal chajaon sonagi
     C 
Cheoreom nal jeoksyeo nohgo
     D 
Geuge sarangil juriya

          G Em 
Nungamado jakkuman mundeukmundeuk tteoolla
   
Ppalgaejin eolgureul bolttaemyeon
    C 
Nimamdo moreuge nal
     D 
Saranghage dwengeoya

           C D 
Neo naege banhaesseo banhaesseo
           G Em 
Dalkkomhan nae sarange noga beoryeosseo
           C D 
Neo naege banhaesseo banhaesseo
           G Em 
Hwangholhan nae nunbiche chwihae beoryeosseo

 C D 
See my eyes
 G Em 
Neon naege ppajyeosseo OH
 C D 
See my eyes
 G Em 
Neo naege banhaesseo OH

           C D 
Nado neol saranghae saranghae
          G Em 
Ije neol saranghanda gobaekhal geoya
           C D 
Nado neol saranghae saranghae
         G Em 
Naemami saranghanda malhago isseo

 C D 
See your eyes
 G Em 
Naman barabwajweo OH
 C D   
See your eyes
 G Em 
Nan neoreul saranghae

 C D  
(See my eyes)
           G Em 
I shigani jinado yeongweonhi
 C D 
(See my eyes)
            G Em 
Nado moreuge neon naege banhaesseo

Sleeping With Knives chords – Useless Id

 Useless ID
Sleeping With Knives
Symptoms
2012 Fat Wreck Chords
Submitted by: jeremyunderground41

Key: D

Tuning: Standard EADGBe

Chords used:
 Bm  -   x24432
 A  -    x02220
 G  -    320033
 Em  -   022000
 F#m  -  244222
 A/C#  - x476xx


Intro:  Bm -- A - G - F#m -- G -- x2


Verse 1:
          Bm 
When the night is a guilt
         A G 
and you lost the fume
     F#m 
you lock yourself up
      G 
in a panic room
      Bm 
Your life is a collision
 A G 
course and it drives you
 F#m G Em Bm 
mad     And Outside your
             A G 
window I've always been
       F#m 
I'm a vampire waiting
    G 
to be lead in
        Bm 
when I know there's a 
        A G F#m G 
silver bullet set aside


Chorus 1:
 Em F#m G 
  You relied on someone
 A Bm 
  I could never really
 G Em F#m 
  be  He took you for
 G A 
granted You sucked
     Bm G A 
the life out of me


Post Chorus:  Bm -- A - G - F#m -- G -- x2


Verse 2:
        Bm 
Do you wander the streets
     A G 
and feel like a whore? 
        F#m 
Do you even know
     G 
yourself anymore? 
    Bm 
It seems like you're 
       A G F#m G Em 
never ready to subside
  Bm 
Staying where you suffer
     A G 
may keep you safe
        F#m 
with a broken heart
       G 
in an empty cage
          Bm 
and your lip to the
           A 
bottle to ease the
 G F#m G A 
pain for you tonight


(Repeat Chorus 1)


Bridge:
 Bm A G 
    When you're sleeping
          Em 
are you sleeping with knives? 
 Bm A G 
    When you're sleeping are 
      Em F#m 
you sleeping with knives? 


Chorus 2:
 Em F#m G 
  How about your ex-lover?
 A Bm G 
  You turned him into a ghost
 Em F#m G 
  You could try one more
     A Bm 
time and see you're not
 G A Bm A G 
worth his love or mine
 F#m G 
   Are you sleeping
             Bm A G 
with knives?
 F#m G 
   Are you sleeping
             Bm A G 
with knives?
 F#m G 
   Are you sleeping
             Bm A G F#m A/C# Bm (hold)
with knives?

The Changing Lights chords – Broken Bells

 Hi !  in here !
Amazing brand new Broken Bells Songs !
Song version from this video : https://www.youtube.com/watch?v=cX0cJTwxF9g
Comments are welcome. Peace from France. Jo.


[Opening part]
 Em Em Em Em 


[Verse]
 Em D A C 
  What did the stone wash away
                 G B7 Am Am 
Are you bailing out, out of the plans we already made
                    Em D A C 
It won't bother me now, and you know I'll be okay
                     G B7 Am Am 
You gotta lead your life, but you're not sure you know the way
          Em D A C 
Well you want to walk in white, you wanna sin but you're too shy
        G B7 Am Am 
So the candle just keeps burning down on you


[Chorus]
     C D E E 
The cards are on the table, I'm here tonight
     C D E E 
And I don't need anything from you
 C D E E 
Down on the bowery, the changing lights
     C D E E 
And I'll still be waiting here for you


[Bridge]
 Em Em 


[Verse]
 Em D A C  
 I saw that look on your face
                   G B7 Am Am 
You don't need me now, and sometimes you're wondering if it's off
                 Em D A C 
Just another mistake, and why don't you just walk away
                       G B7 Am Am 
You gotta measure the cost, what have you gain when you lost
     Em D A C 
Lay off and wonder why, you wanna win but you won't fight
        G B7 Am Am 
So the candle just keeps burning down on you


[Chorus 2x]


[Ending instru]
 C D E E      [*4]

Gelobtes Land chords – Peter Maffay

 Dm B F  
Am Horizont da brennt ein Licht, 
 Dm B F  
die Welt da draussen wartet nur auf mich.
 Dm B F  
100 Pferde stürmen mit mir durch das Morgengrau, 
 Dm B F  
auf dem Weg dorthin hören meine Sorgen auf.
 C Gm 
Im freien Fall durch das gelobte Land
 B F   
Kein Plan B und auch kein Notausgang
 C Gm 
Nichts hält mich auf, auf meinem Thron aus Flammen,
 B F 
im freien Fall durch das gelobte Land


Solo  Dm B F Dm B F Dm B F 
Zwei Zylinder voll Adrenalin,
 Dm B F 
Gewitter, die durch die Straßen ziehn.
 Dm B F 
Ich fahre los, schau nicht zurück,
 Dm B F 
das Leder umarmt mich wie das pure Glück.
 C Gm 
Im freien Fall durch das gelobte Land
 B F   
Kein Plan B und auch kein Notausgang


 Dm B F  
Zeit zerreißt und die Weite bricht,
 Dm B F  
die Ferne naht und ich bremse nicht.
 Dm B F  
Der Teufel nimmt meine Fährte auf.
 Dm B F 
Doch mein Höllenstuhl brennt seine Kerzen aus.
 C Gm 
Im freien Fall durch das gelobte Land
 B F   
Kein Plan B und auch kein Notausgang.
 C Gm 
Nichts hält mich auf, auf meinem Thron aus Flammen,
 B F 
im freien Fall durch das gelobte Land.


 Dm B F  
Am Horizont da brennt ein Licht, 
 Dm B F  
die Welt da draussen wartet nur auf mich.
 Dm B F  
100 Pferde stürmen mit mir durch das Morgengrau, 
 Dm B F  
auf dem Weg dorthin hören meine Sorgen auf.
 C Gm 
Im freien Fall durch das gelobte Land
 B F   
Kein Plan B und auch kein Notausgang
 C Gm 
Nichts hält mich auf,auf meinem Thron aus Flammen,
 B F 
im freien Fall durch das gelobte Land


 Dm B F  
Alte Schatten wollen das ich nie mehr geh.
 Dm B F  
Der Sonne ist das egal wie hoch sie steht.
 Dm B F  
Und am Horizont da brennt ein Licht, 
 Dm B F  
die Welt da draussen wartet nur auf mich.
 Dm B F  
100 Pferde stürmen mit mir durch das Morgengrau, 
 Dm B F  
auf dem Weg dorthin hören meine Sorgen auf.
 C Gm 
Im freien Fall durch das gelobte Land
 B F   
Kein Plan B und auch kein Notausgang
 C Gm 
Nichts hält mich auf, auf meinem Thron aus Flammen,
 B F 
im freien Fall durch das gelobte Land


Solo  Dm B F Dm B F  2x

Fuck A Dog chords – Blink 182 V2

 Hey guys. Pretty simple song. Play the G chord for half the bar, Am for a quarter, 
then D for the other quarter. It sounds perfect on the ukulele if picking. 
Just diddle around with it and you'll get it. Enjoy!

 G Am D G Am 
I    want to fuck a dog in the ass
      D G Am 
He   wants to fuck a dog in the ass
      D G Am   
I    wanna fuck a dog
 D 
That's right kids.

 G Am D G Am 
I    tried to fuck your mom in the ass
 D G Am 
Tried to fuck your dad in the ass
 D G Am D 
Could only find the dog....and his ass

 G Am D G Am     
We   wanna fuck a dog in the ass
    D G Am 
We wanna fuck a dog in the ass
    D G Am D 
We wanna fuck a dog

 G Am D G Am D      
I    tried to fuck a fucking pirate in the ass
  G Am D          
(Aarrh me and me first mate ya survy cur)
 G Am      
Tried to fuck a fucking pirate
 D 
But I've found the dog
 G Am D 
(Ah that was no pirate man that was thine own sister)
 G Am D 
It's a Mexican pirate

 G Am D G Am 
We   want to fuck a dog in the ass
    D G Am 
We want to fuck a dog in the ass
 D G Am D 
Wanna fuck a fucking dog

Sana Y Wala Nang Wakas chords – Sharon Cuneta

 Sana y’ Wala Nang Wakas
  
Intro
 Fm Bbm Eb Fm Db Cm Bbm E Fm Fm Fm 
 
Verse 1
 Fm Bbm Fm Fm 
Sana'y wala ng wakas

 Fm Bbm Fm Fm 
Kung pag-ibig ay wagas

 Db Bbm Cm Fm 
Paglalambing sa'yong piling

 Bb C 
Ay ligaya kong walang kahambing 



Climb 1
 Bbm Eb Ab 
Kung di malimot ng tadhana

 Bbm Eb F 
Bigyang-tuldok ang ating ligaya

 Bbm Eb Cm Fm 
Walang hanggan ay hahamakin

         Ddim G C Eb Bbdim 
Pagka't walang katapusan kitang iibigin



Chorus1
 Ab Edim Ab Edim 
Kahit na ilang tinik ay kaya tapakan

         Ab Cm Db 
Kung yan ang paraan upang landas mo'y masundan

 Ddim Eb Dbdim 
Kahit ilang ulit ako'y iyong saktan

 Ab Fm Dbm 
Hindi kita maaaring iwanan

 Ab Edim Ab Edim 
Kahit ilang awit ay aking aawitin

         Ab Cm Db 
Hanggang ang himig ko'y maging himig mo na rin

 Ddim Eb Dbdim 
Kahit ilang dagat ang dapat tawirin

 Cm Fm Edim C 
Higit pa riyan ang aking gagawin 


 

Verse2
 Fm Bbm Fm Fm 
Sana'y wala ng wakas

 Fm Bbm Ab 
Kapag hapdi ay lumipas

 C#M7 Bbm7 Cm Fm   
Ang mahalaga ngayon ay pag-asa

 Ddim G C 
Dala ng pag-ibig saksi buong daigdig 



Climb 2
 Bbm Eb Ab 
Kung di malimot ng tadhana

 Eb Eb F 
Bigyang-tuldok ang ating ligaya

 Bbm Eb Cm Fm 
Walang hanggan ay hahamakin

         Ddim G C Bbm Bbdim 
Pagka't walang katapusan kitang iibigin



Chorus2
 Ab Edim Ab Edim 
Kahit na ilang tinik ay kaya tapakan

         Ab Cm Db 
Kung yan ang paraan upang landas mo'y masundan

 Ddim Eb Dbdim 
Kahit ilang ulit ako'y iyong saktan

 Ab Fm Bbdim 
Hindi kita maaaring iwanan


Chorus3
 A Bm Dbm Dm    
Kahit ilang awit ay aking aawitin

 A Dbm D 
Hanggang ang himig ko'y maging himig mo na rin

 B Ebdim E Fdim 
Kahit ilang dagat ang dapat tawirin

         F#m Ebdim Dm 
Higit pa riyan ang aking gagawin 


         A/E D 
Di lamang pag-ibig ko

         A/E Db F#m 
Di lamang ang buhay ko'y ibibigay

                 B        
Sa ngalan ng pag-ibig mo

         A/E Asus4    
Higit pa riyan aking mahal ang alay ko

Outro
 A Bdim A Bdim A

Das Schoene Maedchen chords – Farin Urlaub Racing Team

 Artist: Farin Urlaub
Song: Das schöne Mädchen
 Endlich Urlaub
Year: 2001
Tabber: beranger80@hotmail.com


Chords
 Em7 : 022030
 Am7 : x02213


Intro:

     C Em 
e--------------------|------------------|
b----------1--1--1---|------------------|
g-----(0)--0--0--0---|-0----------------|
d----------2--2--2---|-2----------------|
a---3------3--3--3---|-2----------------|
e--------------------|-0----------------|x3


     C Em Em7 
e--------------------|------------------|
b----------1--1--1---|----------(3)-----|
g------0---0--0--0---|-0----------------|
d----------2--2--2---|-2----------------|
a---3------3--3--3---|-2----------------|
e--------------------|-0----------------|
                                4th time


Verse:

 C Em Em7 
Manchmal kommt sie hier vorbei,
 C Em Em7 
aber stehen bleib sie nie.
 C Em Em7 
Manchmal nehme ich mir frei
 C Em 
und dann wart ich hier auf sie.
      G 
Auf sie.



Chorus:

 Am D 
Das schöne Mädchen.
 Am D 
Das schöne Mädchen.



Post Chorus:

     C Em 
e--------------------|------------------|
b----------1--1--1---|----------(3)-----|
g------0---0--0--0---|-0----------------|
d----------2--2--2---|-2----------------|
a---3------3--3--3---|-2----------------|
e--------------------|-0----------------|x2



Verse: 

 C Em 
Ab und zu ist das Wetter schön
 C Em Em7 
und dann lächelt sie sogar.
 C Em Em7 
Ich hab sie schon so oft gesehn,
 C Em 
doch sie nimmt mich gar nicht wahr.
        G 
Nicht wahr.



Chorus: 

 Am7 D 
Das schöne Mädchen.
 Am7 D 
Das schöne Mädchen.
 Am7 D 
Das schöne Mädchen.
 Am7 D 
Das schöne Mädchen.



Solo: 

e---------------------|------------------|
b-------8--10--12-----|-------8--10--12--|
g--9---------------9--|--9---------------|
d---------------------|------------------|
a---------------------|------------------|
e---------------------|------------------|
                   x3            4th time



Chorus:

 Am7 D 
Das schöne Mädchen.
 Am7 D 
Das schöne Mädchen.




Verse (play the chord only once):

 C Em 
Wenn der erste Sonnenschein
 C Em 
auf ihre Haare fällt,
 C Em 
dann gäb ich alles in der Welt,
 C Em 
um ein Sonnenstrahl zu sein.
n. C .
Einmal.




Verse: 

 C Em Em7 
Ich werde weiter auf sie warten,
 C Em Em7 
vielleicht sprech ich sie ja mal an.
 C Em Em7 
Ich würd ihr gern so viel erzählen, erzählen.
 C Em 
und sie wird zuhören,irgendwann
       G 
irgendwann.



Chorus: 

 Am7 D 
Das schöne Mädchen.
 Am7 D 
Das schöne Mädchen.




Coda:

 Am7 D   to the end on  ad lib lyrics.


End on:
 Am  on 4:29.

All For What chords – A Broken Silence

 Intro:  Abm - Abm -
 E - F# - Abm - B - E - F# -
 Abm - Abm -

VERSE 1
 Abm 
He wasnt born to privilege, but he was born to scrimmage, 
      E F# 
Realised to this world, there was more than image. 
Knew to succeed, you must ignore your critics. 
Loved his music, but deplored the business. 
Now, you can sell your soul and get scores of riches, 
But in the end result, youll be torn and twisted. 
Lived to the fullest, thought he saw his limits, 
Stayed on his principles, was to hardcore to pivot. 
Living to rhyme, but later driven to crime, 
So cool, most would of thought he aint sinned in his life, 
Things changed, at the blink of an eye, when he mentioned, 
‘I just got to do a thing for this guy’ said, 
‘Im choked’, looking at his kid, flat broke, 
Five years down the track, wish he hid, 
That dope, his pops always spoke about not mixing with bad folk, 
Now they pulled him from a river, just to give him a tagged toe.
 Abm -

CHORUS
 E 
Rob for the money, steal for the money!
 F# 
Man, I got to get them dollar bills for my honey!
          Abm 
Should I rob for the money, steal for the money!
     B 
Do deals for the money, look, chill for me honey!
          E 
Should I rob for the money, steal for the money!
        F# 
Got to get them dollar bills, for my honey! 
          Abm 
Should I rob for the money, steal for the money!
     Abm 
Do deals for the money, look, chill for me honey!
 E F# 
Life can be funny!   Bro, that boy got killed, killed for the...

VERSE 2
A once disciplined kid became inflicted within, 
Stricken with the sickness, of living for friends.
Bad habits of drinking didnt pay dividends, 
Wife gave him the ultimatum: leave or make ends.
Meet, so for a while, he lived in deceit,
Started making that money pile, without bringing receipts.
Mrs is all smiles, thinking its sweet, 
While his palms are sweaty, heart skipping a beat.
Till a night, he got drunk and started wetting his beak,
Dipped up in his mix, he aint slept in a week.
A once strong figure, got swept off his feet,
Said, ‘Im in hot water’, and I guess it was deep.
Said now, ‘Im probably safer in a cell than the street’.
A week later he knew how well he’d foreseen,
Selling to some D’s, then he gave up his team,
His crew found him, took his life just to pay for his deeds.

CHORUS

BRIDGE (2x)
 Abm E 
Everyday’s a trial we facing, pictures in my mind retracing.
 B Db 
Everyday’s a trial we facing, pictures in my mind retracing.

CHORUS

Official website of the  http://www.abrokensilencemusic.com/

Fifteen Keys chords – Uncle Tupelo

 Fifteen Keys - Uncle Tupelo

Notes: 

1. This is my own interpretation, could not find chords for this song
anywhere on line, so I worked it out on my own. I'm also a beginner, so
there may be more advanced chords that can be used. Suggestions welcome!

2. I play a Cadd9 on this, but C would work also. For a slightly different
sound, Cmaj7 works also.

3. This is my second posting of this song, I neglected to add the instrumental 
break after verse 2 in the original.



 Cadd9 G Em 
Watch it separate in two
 Cadd9 G Em 
Whatever the day wants it to
 Cadd9 G Em 
Finding out that the worst is true
 Cadd9 G Em 
Finding out that it can escape you

CHORUS:
 Em Cadd9 D  
Slings and arrows completes the score
        G D 
Always leaving, wanting more
       Am Cadd9 G Em 
And I try to throw it away


 Cadd9 G Em 
Silver spikes and mace displayed in your eyes
 Cadd9 G Em 
Fearlessness, cannot fathom What's on your mind
 Cadd9                   
Been there, no luck at all
                 G D 
Nothing left to lose
 Cadd9 Em 
Been there, no luck at all
                 G D 
Nothing left to lose
           Am      
I've been there

 Cadd9 D G D Am Cadd9 G D Am Cadd9 G Em Cadd9 G Em  
"Danger/Slow" says the sign ahead
 Cadd9 G Em  
Exhaust fumes, Thin Lizzy instead
 Cadd9 G Em 
Left all pressing cares along the road
 Cadd9 G Em 
Fifteen keys, but where do they go?

CHORUS:
 Em Cadd9 D  
Slings and arrows completes the score
        G D 
Always leaving, wanting more
       Am Cadd9 G Em 
And I try to throw it away

 Cadd9 G 
Strings that pull, strings that bend
      Em Am     
This song and dance never ends

 D G D Am Cadd9

Marliese chords – Fischer Z V2

    >>CHORDS A5          = 577xxx
 B5          = 799xxx
C5         = 8  10 10 x x x
 C/E         = xx2010
D5         = 10 12 12 x x x
Em7add2/ F#  = xx4030
 G           = 355433
 G5          = 355xxx
G*         = x 10 12 0 12 x
Gsus4      = x 10 12 0 13 x

PM = Palm Mute
x  = Mute Note
xxxxxxxxxxxxxxxxxxxxxxxxxxxxxxxxxxxxxxxxxxxxxxxx

    INTRO
        G *                       Gsus4 
    e|-----------------------------------------------|repeat x3
    B|-12--x-------------------13--x-----------------|
    G|--0--x--------------------0--x-----------------|
    D|-12--x-------------------12--x-----------------|
PM  A|-10--10-10-10-10-10-10---10--10-10-10-10-10-10-|
    E|-----------------------------------------------|

   G *                Gsus4 G *         Gsus4 
I told them I take photos for this magazine
      G *            Gsus4 G *     Gsus4 
They let me in to see you comb your hair
 C5 D5 G5               
 I watched for signs as I came through that door
 C5 D5 G5 
 The anxious eyes that I've been waiting for
 C5 D5 
It's no use hoping I'm a dream

       G 
Oh Marliese
    Em7add2/ F# C/E 
The waiting almost dragged me
       G       Em7add2/ F# C/E 
To my knees

       G 
Oh Marliese
    Em7add2/ F#          
You never really thought that
 C/E G      Em7add2/ F# C/E 
I'd leave you in peace

 G *  Gsus4 G *  Gsus4 G *                  Gsus4 G *            Gsus4 
It's no use crying out 'cause they can't help you now
        G *                  Gsus4 G *   Gsus4 
You're forced to hear the words I have to say
 C5 D5 G5 
 I saw your face when I was taken down
 C5 D5 G5 
 You seemed so pleased, you're not so happy now
 C5 D5 
  It's your turn to be afraid
 
       G 
Oh Marliese
    Em7add2/ F# C/E 
The waiting almost brought me
       G       Em7add2/ F# C/E 
To my knees

       G 
Oh Marliese
    Em7add2/ F#          
You never really thought that
 C/E G      Em7add2/ F# C/E 
I'd leave you in peace

 C5 B5 A5 D5 C5 B5 A5 D5 
Oh Marliese
 C5 B5 A5 D5 C5 B5 A5 D5  
Marliese

       G 
Oh Marliese
    Em7add2/ F# C/E 
The waiting almost dragged me
       G       Em7add2/ F# C/E 
To my knees

       G 
Oh Marliese
    Em7add2/ F#          
You never really thought that
 C/E G        Em7add2/ F# C/E     
I'd leave you in peace

 G *  Gsus4 G *  Gsus4 G *                     Gsus4 G *       Gsus4         
So where's the smooth composure of the movie star?
     G *                     Gsus4 G *    Gsus4 
You must have played this many times before
 

Till I Find You chords – Austin Mahone

 This is Austin Mahone's new single "Till i Find You" 
I hope you like it and enjoy !
-------------------------------------------


 Bm A Bm 
Girl! I woke up with you on my mind,
     A Bm   

I found your picture on my phone,
                    Bm A                  

I don’t know what you did to me that night,
       Bm 

I’m in the twilight zone

 G A 
Tell me, why I’m trippin,
      Bm A 

I’m still thinkin bout the way you move.
 G F#m 

Tell me, am i crazy?
  F# Bm 
Will I ever, ever,

         G 
Find You!
            A F#         
Every minute I’m without you,
( Bm )   G 

I lose,
                A F# Bm 
Cos and angel touched my heart and took
       G  

My cool. 
           A F# Bm 
Every second burn like fire,

        G 
I’m blue
                  F#m Bm 
What I will do till I find you


 Bm 
Gone!
        A Bm              

No trace, I’m going Sherlock Holmes,
            A Bm 
Cinderella when the clocks go strike,
               A Bm 
It gets so hard to breathe on my own,
              Bm                   
Girl, I’m running out of time.

 G A 
Tell me, why I’m trippin,
      Bm A 

I’m still thinkin bout the way you move.
 G F#m 

Tell me, am i crazy?
  F# Bm 
Will I ever, ever,

 G 
Find You!
            A F#         
Every minute I’m without you,
 Bm G 

I lose,
                A F# Bm 
Cos and angel touched my heart and took
       G  

My cool. 
        
   A F# Bm 
Every second burn like fire,

( Bm )  G 
I’m blue
                  F# Bm 
What I will do till I find you

 G              
Wonder where, what you’re doing girl,
 D E 

Baby I’m about to lose it.
 D B 
I’ve been running around the world,
             A 
I won’t stop till I find ya!
 Bm 
Wonder where, what you’re doing girl,
                             E 
Baby I’m about to lose it.
      D E 
I’ve been running around the world,
   F#m B 
I won’t stop till I find ya!

 G A 
Tell me, why I’m trippin,
(Won’t you tell me why I’m trippin girl?)
 G F#m 
Tell me, am i crazy?
(Ooooohhh.)

         G 
Find You!
            A Bm 
Every minute I’m without you,

 G 
I lose,

 A F# Bm 
Cos and angel touched my heart and took
( Bm )   G 
My cool. 

            A F# Bm 
Every second burn like fire
,
              G 
I’m blue
                   F#m 
Of what I will do


Till I
          G 
 Find You!

            A F#m Bm 

Every minute I’m without you,

( Bm )  G 

I lose,


 A F# Bm 
Cos and angel touched my heart and took


( Bm )    G 

My cool.

            A F#</s

All American Girl chords – Train

 I love this song and I can't search chords, so I listened for a long time and 
finally I've got it!!! (Sorry, my english isn't very good, 'cause I'm Czech)

If you have a problem, contact me on this  katerina.koprnova@seznam.cz
_____________________________________________________________________________

Intro:  D E F Em D                  
To be that good, it must be taxin'
         E      
There's no such thing as satisfaction
 F 
You're makin' things happen while I'm relaxin'
        Em 
Like a Sunday afternoon
 D 
My dad used to tell me I was lazy
   E     
I got dance moves like Patrick Swayze
         F 
I'm the left over turkey for the world's mayonnaisey
     Em 
The star next to the moon

 Bm Em 
Now I know I'm just here to amuse you
                      Bm 
And I don't mean to abuse you
                     F G 
But if I could just use you one time

 D E 
Tell me what it's like
                       
To be the queen of it all
 F G D 
The Neiman Marcus of the Mall
 D E       
And tell me what it's like to be the one and only
 F G D 
All American Girl

 D 
Now I never had a supernatural feelin'
 E 
Not to mention a sexual healin'
     F 
But every now and then I get to the kneelin'
    Em 
To thank him for it all
     D 
But you probably got some inside connection
 E 
So many numbers that you gotta rolodex them
 F 
So much muscle that you never gotta flex them
    Em 
To catch you when you fall

 Bm Em  
And I know I'm just here to amuse you
                      Bm 
And I don't mean to confuse you
                     F G 
But if I could just use you one more time

 D E F 
Tell me what it's like to be the house on the hill 
 G D 
The number one diet pill
 D E 
And tell me what it's like to be the one and only
 F G D 
All American Girl


 D E F D  (repeat 2x)

 D 
Now I bet you won't say you get crazy
             D 
Or that you don't shave your legs

When you're lazy
                D 
Or that you're just like everybody else in the world
     D 
You just got lucky, that's all

 Bm Em 
And I know you're not here to amuse me
                             Bm 
But you sure know how to confuse me
                    F G 
So if I could just ask you once again

 D D F 
To tell me what it's like to be a star on the rise
 G D 
A breakfast cereal prize
 D E         
And tell me what it's like to be the one and only
 F G D 
All American Girl
 F G D  
The All American Girl
 F G F G D   
The all amazing crazy girl

Northern Lights Tabs by Dz Deathrays

 -------------------------------------------------------------------------------
                             Northern Lights - DZ Deathrays
-------------------------------------------------------------------------------
: Lachie Gilmour

Tuning: Standard

Intro:

e|---4-4-4-4-4-4---4-4-4-4---5-5-5-5-5-5-5-5-5-5-5-5-5-5-5-5-------------|
B|---5-5-5-5-5-5---5-5-5-5---5-5-5-5-5-5-5-5-5-5-5-5-5-5-5-5-------------|
G|---6-6-6-6-6-6---4-4-4-4---6-6-6-6-6-6-6-6-6-6-6-6-6-6-6-6-------------|
D|---6-6-6-6-6-6---6-6-6-6---7-7-7-7-7-7-7-7-7-7-7-7-7-7-7-7-------------|
A|---------------------------7-7-7-7-7-7-7-7-7-7-7-7-7-7-7-7-------------|
E|---------------------------5-5-5-5-5-5-5-5-5-5-5-5-5-5-5-5-------------|

e|---4-4-4-4-4-4-4-4---4-4-4-4---5-5-5-5-5-5-5-5-5-5-5-5-5-5-5-5-------------|
B|---5-5-5-5-5-5-5-5---5-5-5-5---5-5-5-5-5-5-5-5-5-5-5-5-5-5-5-5-------------|
G|---6-6-6-6-6-6-6-6---4-4-4-4---6-6-6-6-6-6-6-6-6-6-6-6-6-6-6-6-------------|
D|---6-6-6-6-6-6-6-6---6-6-6-6---7-7-7-7-7-7-7-7-7-7-7-7-7-7-7-7-------------|
A|-------------------------------7-7-7-7-7-7-7-7-7-7-7-7-7-7-7-7-------------|
E|-------------------------------5-5-5-5-5-5-5-5-5-5-5-5-5-5-5-5-------------|


Verse (distorted): x4

e|---4-4-4-4-4-4-4-4---4-4-4-4---5-5-5-5-5-5-5-5-5-5-5-5-5-5-5-5-------------|
B|---5-5-5-5-5-5-5-5---5-5-5-5---5-5-5-5-5-5-5-5-5-5-5-5-5-5-5-5-------------|
G|---6-6-6-6-6-6-6-6---4-4-4-4---6-6-6-6-6-6-6-6-6-6-6-6-6-6-6-6-------------|
D|---6-6-6-6-6-6-6-6---6-6-6-6---7-7-7-7-7-7-7-7-7-7-7-7-7-7-7-7-------------|
A|-------------------------------7-7-7-7-7-7-7-7-7-7-7-7-7-7-7-7-------------|
E|-------------------------------5-5-5-5-5-5-5-5-5-5-5-5-5-5-5-5-------------|

"So tired lay awake at night, walked up stairs flicked on the light".....

Chorus (distorted): x4

e|---------------------------------------------------------------------------|
B|---------------------------------------------------------------------------|
G|---------------------------------------------------------------------------|
D|---------------------------------------------------------------------------|
A|--2-2-2-2-2-2-2-2--4-4-4-4--2-2-2-2-2-2-2-2-2-2-2-2-2-2-2-2----------------|
E|--0-0-0-0-0-0-0-0--2-2-2-2--0-0-0-0-0-0-0-0-0-0-0-0-0-0-0-0----------------|

"Getting hassled by these lessons learned"....

Lead into Verse/Break:

e|---------------------------------------------------------------------------|
B|---------------------------------------------------------------------------|
G|---------------------------------------------------------------------------|
D|---------------------------------------------------------------------------|
A|--2-2-2-2-2-2-2-2-2-2-2-2-2-2-2-2-2-2-2-2-2-2-2-2-2-2-2-2-2-2-2-2----------|
E|--0-0-0-0-0-0-0-0-0-0-0-0-0-0-0-0-0-0-0-0-0-0-0-0-0-0-0-0-0-0-0-0----------|

e|---------------------------------------------------------------------------|
B|---------------------------------------------------------------------------|
G|-18----14----15-------------18----14----15---------------------------------|
D|---------------------------------------------------------------------------|
A|---------------------------------------------------------------------------|
E|---------------------------------------------------------------------------|

Verse:

Chorus:

Lead into break:

e|---------------------------------------------------------------------------|
B|---------------------------------------------------------------------------|
G|---------------------------------------------------------------------------|
D|---------------------------------------------------------------------------|
A|--2-2-2-2-2-2-2-2-2-2-2-2-2-2-2-2-2-2-2-2-2-2-2-2-2-2-2-2-2-2-2-2----------|
E|--0-0-0-0-0-0-0-0-0-0-0-0-0-0-0-0-0-0-0-0-0-0-0-0-0-0-0-0-0-0-0-0----------|

e|---------------------------------------------------------------------------|
B|-------------------------------

Ten Times Better Tabs by Tonight Alive

 Intro (Guitar 1)
E|--10---9---------------10---9-------9-------10---9-------------------------10-10--9|
B|-----7---7--10--7---7-----7---7--10---10--7----7---7--10--7---7--10--7---7---------|
G|------------------9-----------------------------------------9----------9-----------|
D|-----------------------------------------------------------------------------------|
A|-----------------------------------------------------------------------------------|
D|-----------------------------------------------------------------------------------|

Intro (Guitar 2)
E|------------------------------------------------------------|
B|------------------------------------------------------------|
G|---------------------------------------------77-77----------|
D|--5-5-55-55-55--77-77-77-77-77--99-99-99-99--77-77-55-55----|
A|--5-5-55-55-55--77-77-77-77-77--99-99-99-99--55-55-55-55----|
D|--5-5-55-55-55--77-77-77-77-77--99-99-99-99--------55-55----|

Verse 1 (Guitar 2)
E|-----------------------------------|
B|-----------------------------------|
G|-----------------------------------|
D|--5-55-55-55-55--99-99-97-77-77----|
A|--5-55-55-55-55--99-99-97-77-77----|
D|--5-55-55-55-55--99-99-97-77-77----|

Pre-Chorus 1 (Guitar 2)
E|-----------------------------------|
B|-----------------------------------|
G|----------11-11-11/14-14-----------|
D|--5555-55-x--x--x--x--x------------|
A|--5555-55-9--9--9-/12-12-----------|
D|--5555-55--------------------------|
    **** **
E|-----------------------------------|
B|-----------------------------------|
G|----------9--9--9/-7--7------------|
D|--9999-99-x--x--x--x--x------------|
A|--9999-99-7--7--7/-5--5------------|
D|--9999-99--------------------------|
    **** **
Chorus 1 (Guitar 1)
E|-------------------------------------------------|
B|-------------------------------------------------|
G|--7-7-7-14--9-9-9-14--7-7-7-14--9-7-9-7-9-11-7---|
D|--x-x-x-x---x-x-x-x---x-x-x-x---x-x-x-x-x-x--x---|
A|--5-5-5/12--7-7-7/12--5-5-5/12--7/5-7/5-7/9/-5---|
D|-------------------------------------------------|

E|------------------------------------|
B|------------------------------------|
G|--7-7-7-14--9-9-9-14--7-7-7-14--9---|
D|--x-x-x-x---x-x-x-x---x-x-x-x---x---|
A|--5-5-5/12--7-7-7/12--5-5-5/12--7---|
D|------------------------------------|

Chorus 1 (Guitar 2)
E|----------------------------------------|
B|----------------------------------------|
G|--------7-------6--------7--------------|
D|--5555--x-7777--x--9999--x--77777777----|
A|--5555--5-7777--4--9999--5--77777777----|
D|--5555----7777-----9999-----77777777----|

E|----------------------------------|
B|----------------------------------|
G|--------7-------6--------7--------|
D|--5555--x-7777--x--9999--x--7-7---|
A|--5555--5-7777--4--9999--5--7-7---|
D|--5555----7777-----9999-----7-7---|

Verse 2 (Guitar 1)
E|------------------------------------------|
B|------------------------------------------|
G|--7-7-7-7--7-7-7-7/-11-11-11-11-9-9-9-9---|
D|--x-x-x-x--x-x-x-x--x--x--x--x--x-x-x-x---|
A|--5-5-5-5--5-5-5-5/-9--9--9--9--7-7-7-7---|
D|------------------------------------------|

Verse 2 (Guitar 2)
E|-----------------------------------|
B|-----------------------------------|
G|-----------------------------------|
D|--5-55-55-55-55--99-99-97-77-77----|
A|--5-55-55-55-55--99-99-97-77-77----|
D|--5-55-55-55-55--99-99-97-77-77----|

Pre-Chorus 2 (Guitar 1)
E|--------------------|
B|--------------------|
G|--14-14/-9/-11/-7---|
D|--x--x---x--x---x---|
A|--12-12/-7/-9-/-5---|
D|--------------------|

Pre-Chorus 2 (Guitar 2)
E|-----------------------------------|
B|-----------------------------------|
G|----------11-11-11/14-14-----------|
D|--5555-55-x--x--x--x--x------------|
A|--5555-55-9--9--9-/12-12-----------|
D|--5555-55--------------------------|
    **** **
E|-----------------------------------|
B|-----------------------------------|
G|----------9--9