Month: February 2014

Hollywood Hills Tabs by Sunrise Avenue V3

 --------------------------------------------------------------------------
                      HOLLYWOOD HILLS - Sunrise Avenue
--------------------------------------------------------------------------
Transcripted by: peteihis 22-Feb-2014
Tuning: Standard


PRE-INTRO:
Damped
|C5      | x4

INTRO:
Riff 1
|:C      |    G   |Am      |    G   :| x2


VERSE 1:
         C                                           Bm
No, this is not the time or the place for broken hearted, 
                              Am                        Am5+   Am
'cause this is the end of the rainbow, where no one can be too sad.

      C                                         Bm
No, I don't wanna leave but I must keep moving ahead, 
                              Am            Am5+                   Am
'cause my life belongs to the other side, behind the great ocean's waves.


CHORUS 1:
C                  C/E            G                    G/B
Bye, bye Hollywood Hills I'm gonna miss you wherever I go I'm gonna 
Am             Em                       F         (strum once)        NC
  come back to walk these streets again  Bye, bye Hollywood Hills forever. 


INTERLUDE:
Riff 1
|C      |    G   |Am      |    G   |


VERSE 2:
      C                                         Bm
Thank you for the morning walks on the sweet Sunset 
                      Am                      Am5+  Am(riff 2)
And for the hot night moments for the fantasy in my bed.
         C                                            Bm
I take a part of you with me now and you won't get it back
                      Am                            Am5+    Am(riff 2)
and a part of me will stay here, you can keep it forever, dear.


BRIDGE 1:
    |D     | F   NC|
Whou-oo -  oh!


CHORUS 2: 
C                    C/E            G                    G/B
  Bye, bye Hollywood Hills I'm gonna miss you wherever I go I'm gonna 
Am             Em                        F                   G
  come back to walk this streets again Remember, that we had fun together. 


CHORUS 3:
C                C/E             G                     G/B
  Bye, bye Rodeo girls I'm gonna   love you wherever I go, I'm gonna
Am             Em                   F                    G
  come back so we can play together.  Bye, bye Hollywood Hills forever. 


BRIDGE 2:
C                              Bm 
    Long distance love doesn't work! All the miles in between get in 
Am
your head. - No, I don't wanna go, I don't wanna go!

CHORUS 1:
Synth riff
(C)                                 (G)
  Bye, bye Hollywood Hills I'm gonna   miss you wherever I go I'm gonna 
(Am)           (Em)                     (F)
  come back to walk these streets again.   Bye, bye ...


CHORUS 2:
C                            C/E       G                                  
  Bye, bye Hollywood Hills I'm gonna miss you wherever I go I'm gonna 
Am             Em                      F                     G
  come back to walk this streets again Remember, that we had fun together. 


CHORUS 3:
C                C/E             G                                  
  Bye, bye Rodeo girls I'm gonna Love you wherever I go, I'm gonna
Am             Em                   F                    G
  come back so we can play together.  Bye, bye Hollywood Hills forever.


OUTRO:
Riff 1
|C      |    G   |Am      |          G             |
                           Hollywood Hills forever, 
Riff 1
|C      |    G   |Am      |          G             |
 yeah!                     Hollywood Hills forever!    


POST-OUTRO:
|C   Csus4 Bm|Am         |C   Csus4 Bm|Am    G |C

---------------------------------------------------------------------------
COMMENTS AND TIPS, HOW TO PLAY:
---------------------------------------------------------------------------

This arrangement combines some ideas from live @ Coke Sound Up with the 
official youtube video. The live i

Lost chords – Wesley Williams

 G D 
When your lost and all alone
 Em C 
When your sad and theres no one home
 G D 
When you've cried through out the night
 Em C 
Just know it'll be okay

Chorus:
  G D 
its gonna be okay
 Em C 
You can fight for one more day
 G D 
Its gonna be alright
 Em C 
 you can make in through one more night

Memories And Moments chords – Tim Obrien And Darrell Scott

 Memories and Moments
Tim O’Brien & Darrell Scott

Capo 5th Fret

Intro:
 D5 D A D5 D Bm A D5 D5 D A D5 
I wish that I could hold to you when day is done til my life is through
             D Bm A D5 
But all I have to hold onto are these memories and moments

 D5 D A D D5 D A D5 
I try so hard to be at peace to still my mind catch and release
                D Bm A D5 
From walkin tall to on my knees its these memories and moments


           Bm D5 
Now back again (back again) back to the top (to the top)
              Bm D5 
Pray it will end (it will end) Oh, but it wont stop (it wont stop)
               Bm G5 
Its waiting there (waiting there) up around the bend (round the bend)
                Em7 A 
Oh, the river flows (river flows) itll never end


 D5 D A D5 
The weaver pulls her endless thread she dreams awake, oh, she dreams in bed
                 D Bm A D5 
She hears the words she never said in her memories and moments

Break:
 D5 D A D5 D Bm A D5 Bm D5 
Now back again (back again) back to the top (to the top)
              Bm D5 
Pray it will end (it will end) Oh, but it wont stop (it wont stop)
               Bm G5 
Its waiting there (waiting there) up around the bend (round the bend)
                Em7 A 
Oh, the river flows (river flows) itll never end

Break:
 D5 D A D Bm A D D5 D A 
I live for love thats what I do theres love in me, yeah, theres 
          D5 
love in you
                     D Bm A D5 
And with a broken voice our song is true in these memories and moments

             A D 
In these memories and moments
             A G5 D5 D A D Bm  
In these memories and moments
              A D5 
It’s these memories and moments

The City chords – The 1975 V2

 Hello! This is one of my favorite songs by the 1975, so I hope you enjoy! (If you 
have any comments/corrections that can be used to make this better, feel free to 
leave them below(: )



Capo 2; Standard tuning



 C Am 
Don't call it a fight when you know it's a war
                                   G 
With nothing but your t-shirt on.
 C Am 
And go sit on the bed 'cause I know that you want to
 F G 
You got pretty eyes, but I know you're wrong

 C Am 
And don't call it a spade if it isn't a spade
                                     G 
And go lie on the floor if you want
  C Am 
The first bit of advice that you gave me that I liked was they're too 

strong, too strong
 F G 
Get in the shower if it all goes wrong


           C                                               
Yeah you wanna find love then you know where the city is
           Am G 
Yeah you wanna find love then you know where the city is (x2)


 C Am 
Yeah counting cards was the best job he ever had

Cleaning up
                                    G 
He got good with his 4's and his 2's
 C Am 
That community service was the best job he ever had

Cleaning up
 F G 
He got sick on the floor and his shoes

         C Em 
Oh and she said it's your birthday, Are you feeling alright?
      F G 
The next one's the MD You'll be feeling just fine
       C Em 
Your brother is just sat there, You said he felt snide
       F G 
You hope that that boy will be alright



           C                                               
Yeah you wanna find love then you know where the city is
           Am G 
Yeah you wanna find love then you know where the city is 

The City is


         C Em 
Oh and she said it's your birthday, Are you feeling alright?
      F G 
The next one's the MD You'll be feeling just fine.
       C Em 
Your brother is just sat there, You said he felt snide.
       F G 
You hope that that boy will be alright.


           C                                               
Yeah you wanna find love then you know where the city is
          Am G 
Yeah you wanna find love then you know where the city is 

The City is..



Hope you enjoyed it(:

Raccoon chords – Zen Mystery Fogg

 chords 

listen to the song to get the order
 A F#m A D A F# A 

i went walking to see you

uh oh, this cannot be true


you were with him, my best friend


i saw him coming at you


so i grabbed a gun, but he saw it first and ran


and he pulled one too, he shot and wounded me


oh oh


i fell down and i was bleedin'


i ran and collapsed in a bush


my whole life it was flashing


i finally saw the truth


and i caught a glimpse of future love again


and i called to him, love her like i did


oh oh

The Plains Bitter Dancer chords – Fleet Foxes

 the plains/ bitter dancer by fleet foxes
tab by alexander rex

dropped D tuning
DADGBe

capo on 2nd fret


 E *    2x2100   F# * 444xxx
 G *    5x54xx   F#   4x43xx
 A *    5x54xx   G ** 5x503x
 Dsus2  x00230   F *  3x32xx
 Fm     x44222   G    x20003
 G6     x20030



the plains


F#|-0----------0---------------------0----------0----------0---------|
C#|-5-3-2-0-0--5-3-2-0-0--7-5-3-0-0--5-3-2-0-0--5-3-2-0-0--5-3-2-0-0-|
A |-4----------4----------4----------4----------4----------4---------|
E |------------------------------------------------------------------|
B |------------------------------------------------------------------|
E |------------------------------------------------------------------|

F#|---------------------------------------------------|
C#|-7-5-3-0-0--7-5-3-0-0--9-7-10-12-9-7-5-7-9-7-5-7-7-|
A |-4----------4--------------------------------------|
E |---------------------------------------------------|
B |---------------------------------------------------|
E |---------------------------------------------------|

F#|-0----------0---------------------------------------------------------------|
C#|-5-3-2-0-0--5-3-2-0-0--7-5-3-0-0--7-5-3-0-0----9-7-10-12-9-7-5-7-9-7-5-7-7--|
A |-4----------4----------4----------4-----------------------------------------|
E |----------------------------------------------------------------------------|
B |----------------------------------------------------------------------------|
E |----------------------------------------------------------------------------|

F#|-----------------------0----------0--------------------------------------|
C#|-7-5-3-0-0--7-5-3-0-0--5-3-2-0-0--5-3-2-0-0--9-7-10-12-9-7-5-7-9-7-5-7-7-|
A |-4----------4----------4----------4--------------------------------------|
E |-------------------------------------------------------------------------|
B |-------------------------------------------------------------------------|
E |-------------------------------------------------------------------------|

F#|-0----------0----------0----------0--------------------------------------|
C#|-5-3-2-0-0--5-3-2-0-0--5-3-2-0-0--5-3-2-0-0--9-7-10-12-9-7-5-7-9-7-5-7-7-|
A |-4----------4----------4----------4--------------------------------------|
E |-------------------------------------------------------------------------|
B |-------------------------------------------------------------------------|
E |-------------------------------------------------------------------------|

F#|-0----------0----------0----------0----------0---------|
C#|-5-3-2-0-0--5-3-2-0-0--5-3-2-0-0--5-3-2-0-0--5-3-2-0-0-|
A |-4----------4----------4----------4----------4---------|
E |-------------------------------------------------------|
B |-------------------------------------------------------|
E |-------------------------------------------------------|



bitter dancer

   Em riff 1 (picking) (you can also play this riff in fast triplets)
F#|---0---0---0---0---0---0---0---0---0---0--0---0---0---0---0---0-|
C#|---0---0---0---0---0---0---0---0---0---0--0---0---0---0---0---0-|
A |-----0---------------0-------0-------0--------------0-------0---|
E |-------------2---0-------4-------2------0-----------------------|
B |-2-------4----------------------------------4---2-------2-------|
E |----------------------------------------------------------------|

   Em riff 1
F#|---0---0---0---0---0---0---0---0---0---0--0---0---0---0---0---0-|
C#|---0---0---0---0---0---0---0---0---0---0--0---0---0---0---0---0-|
A |-----0---------------0-------0-------0--------------0-------0---|
E |-------------2---0-------4-------2------0-----------------------|
B |-2-------4----------------------------------4---2-------2-------|
E |----------------------------------------------------------------|



Letters In The Sand chords – Sunrise Avenue

 Sunrise Avenue- Letters In The Sand
 Unholy Ground

Chords with * : only one strum

Intro:

 B *  Bb *  Db * (4x)

Verse 1:
 Db F# 
  Time to see this for what it is
 Ebm Ab                 
  Bite the bullet and take the hit
    Db F# 
I thoght it was, but it wasn't our turn now
 Ebm Ab 
   All I can do is just let it burn, baby

Pre-Chorus:
 E F# Db 
  After all I was no angel
         E F# Db Ab 
Now you speak and in codes that I don't know or can't untangle

Chorus:
       B *       F# *     Db *
Like letters in the sand
          B *     F# *     Db *
There's gonna come a wave
      B *     F# *   Db *         
It washes you away from me 
       B *      F# *      Db *
like letters in the sand

Verse 2:
 Db F# 
  There was no anger, no cries out loud
 Ebm Ab 
   Like the tide we just ran out
 Db F# 
  Hell of a lesson that I had to learn
 Ebm Ab 
  All I can do is just let it burn, baby


Pre-Chorus:
 E F# Db 
  After all I was no angel
         E F# Db Ab 
Now you speak and in codes that I don't know or can't untangle


Chorus:
       B *       F# *     Db *
Like letters in the sand
          B *     F# *     Db *
There's gonna come a wave
      B *     F# *   Db *         
It washes you away from me 
       B *      F# *      Db *
like letters in the sand

       B *       F# *     Db *
Like letters in the sand
          B *     F# *     Db *
There's gonna come a wave
      B *     F# *   Db *         
It washes you away from me 
       B *      F# *      Db *
like letters in the sand

 Ab F# Bbm 
  Lay with me here for a while
 Ab F# Db 
  Please lay with me for a while
 Ab F# Bbm 
  Lay with me here for a while
 Ab F# 
  Please lay with me 

 Db 

Chorus:
          ( B *)   ( F# *)   ( Db *)
Just like letters in the sand
          B *     F# *     Db *
There's gonna come a wave
      B *     F# *   Db *         
It washes you away from me 
       B *      F# *      Db *
like letters in the sand

       B *       F# *     Db *
Like letters in the sand
             B *     F# *     Db *
Just like letters in the sand
      B *     F# *   Db *         
It washes you away from me 
       B *      F# *      Db *
like letters in the sand

       B *      F *        Db B *   F# *   Db *
Like letters in the sand---------------

 B *   F# *   Db * (4x)

Dont Go Tabs by The Big Cats

 -------------------------------------------------------------------------------
                             DON'T GO - The Big Cats
-------------------------------------------------------------------------------
: 98angelblue
 brightyellowjacket

Tuning: EADGBe (standard)

Big Cats: http://thebigcatsmusic.com/

Okay so this is my first tab.  And it's totally original because I can't seem to 
find any other tabs anywhere.
So this is for three guitars: Lead (Jason White) and Rhythm (Burt Taggart).
It's really at the last chorus where it sounds like there's a third guitar so I 
just put that in, too.
Give suggestions if you see something that sounds wrong (probably the lead because I suck)

h- hammer on
\- slide down
/- slide up





VERSE 1

Rhythm:

e|----------------------------------------|
B|----------------------------------------|
G|----------------------------------------|
D|--5----------------------5--------------|   x2
A|--3-x15--7-5------2------3-x16----------|
E|---------5-3-x15--0-x17-----------------|


CHORUS 1

Rhythm:

e|----------------------------------------|
B|----------------------------------------|
G|--5------------2------------------------|
D|--5------2-----2-----3------------------|   x2
A|--3-x8---2-----0-x8--3------------------|
E|---------0-x8--------1-x8---------------|

Lead:

e|-----8--8--8--8----3-3--3-3-------------|
B|-----8--8--8--8----3-3--3-3-------------|
G|-----9--9--9--9----4-4--4-4-------------|
D|----10-10-10-10----5-5--5-5-------------|
A|----------------------------------------|
E|----------------------------------------|

e|----5-5--5-5----1-1--1-1----------------|
B|----5-5--5-5----1-1--1-1----------------|
G|----5-5--5-5----2-2--2-2----------------|
D|----7-7--7-7----3-3--3-3----------------| all x2
A|----------------------------------------|
E|----------------------------------------|

VERSE 2

Rhythm:

e|----------------------------------------|
B|----------------------------------------|
G|----------------------------------------|
D|--5----------------------5--------------|   x2
A|--3-x15--7-5------2------3-x16----------|
E|---------5-3-x15--0-x17-----------------|

Lead:

    (second half of verse)
e|----5------7------4------5----5-5\------|
B|---6------8------5------6-----6-6\------|
G|--5------7------4------5------5-5\------|
D|----------------------------------------|
A|----------------------------------------|
E|----------------------------------------|

CHORUS 2

Rhythm:

e|----------------------------------------|
B|----------------------------------------|
G|--5------------2------------------------|
D|--5------2-----2-----3------------------|   x4
A|--3-x8---2-----0-x8--3------------------|
E|---------0-x8--------1-x8---------------|

Lead:

e|--------8-----------3----------5-----------1-----|
B|----8---8-8-------3-3-3------5-5-5-------1-1-1---|
G|--------9---9-------4---5------5---5-------2---2-|
D|-10---10-------5---5-------7---7-------3---3-----|   x4
A|-------------------------------------------------|
E|-------------------------------------------------|

BRIDGE

Rhythm:

e|----------------------------------------|
B|----------------------------------------|
G|----------------------------------------|
D|----------------------------------------|   x4
A|-2-2-2-5-5-5-3-3-3-3-3-3----------------|
E|-0-0-0-3-3-3-1-1-1-1-1-1----------------|

Lead:

    (4th set of saying don't go)
e|----------------------------------------|
B|----------------------------------------|
G|----------------------------------------|
D|-----6---9--10--------------------------|
A|----7--10--8----------------------------|
E|----------------------------------------|

GUITAR SOLO

Rhythm:

e|----------------------------------------|
B|----------------------------------------|
G|-----------------2----------------------|
D|----5------2--

Heart On The Floor chords – The Summer Set

 I love The Summer Set but I haven't seen any tabs out for this song. So, I thought I'd 
make one! I'm not sure if it's 100% correct, but I think it sounds alright!

No Capo

 C Am F C  (x2)

 C Am F C 
I was at an all time low, the night you walked in
 C Am F C 
You were just close enough to smell the whiskey on my breath
         C Am F C 
I didnt know why you were alone, but you aint leaving that way
              C Am F C 
I threw back one more drink before I asked for you your name
             D F 
And I said, Hey, hey, why you acting so sorry?
 D F G 
Hey, hey, who put that look on your face?

 C Em F C 
And I dont wanna leave this bar until I get your number
 C Em F C 
And if Im being honest, I cant wait to get you home
 C Em F C 
But unlike all the others I wont jet the morning after
   Am C F C 
I wont go dropping your heart on the floor
          C Em F C 
Come on, ooh, ooh, just give me what I want yeah
 C Em F C 
Ooh, ooh, dont drop my heart on the floor


 C Am F C 
Staring at your lipstick stain on your second glass of wine
 C Am F C 
I told you, Since I bought it, I suppose your lips are mine.
               C Am 
But you didnt laugh, brought up the past,
               F C 
Said Ive been hurt before.
            C Am F C 
Just about enough to know that I can't take it no more.


 C Em F C 
And I dont wanna leave this bar until I get your number
 C Em F C 
And if Im being honest, I cant wait to get you home
 C Em F C 
But unlike all the others I wont jet the morning after
   Am C F C 
I wont go dropping your heart on the floor
          C Em F C 
Come on, ooh, ooh, just give me what I want yeah
 C Em F C 
Ooh, ooh, dont drop my heart on the floor

 Am 
Dont over think what you want
 F 
Yeah you got the right to move on
 C 
From this spot to my door
 G 
Come on let that dress hit the floor

 Am 
We got the rest of our lives
 F 
Let me take you for the ride
 C 
Somewhere youve never been before
 G 
And youll be screaming


( C )             ( Em )             F C 
And I dont wanna leave this bar until I get your number
 C Em F C 
And if Im being honest, I cant wait to get you home
 C Em F C 
But unlike all the others I wont jet the morning after
   Am C F C 
I wont go dropping your heart on the floor

 C Em F C 
And I dont wanna leave this bar until I get your number
 C Em F C

Pure Imagination chords – Fiona Apple

 Intro:  Fm Bbm 
Come with me
            Db               
And you'll be
      Fm 
In a world of pure imagination
        Bbm 
Take a look
           Db 
And you'll see
      Fm 
Into your imagination

         Bbm Db 
We'll begin with a spin
            Fm 
Traveling in a world of my creation
             F# F Eb Db C 
What we'll see will defy explanation 

 Fm Eb 
If you want to view paradise
 Db Ab 
Simply look around and view it
 C Db 
Anything you want to, do it
 Bbm 
Want to change the world?
                 Eb 
There's nothing to it 

 Bbm Eb Fm Bbm Eb Fm Fm E5 
There is no life I know
    Eb Db7 
To compare with pure imagination
        Db C 
Living there, you'll be free
        Cm Bbm C 
If you truly wish to be

 Db C Bbm Ab 
If you want to view paradise
 Bbm Ab 
Simply look around and view it
 Db Cm 
Anything you want to, do it
 Fm/Bb 
Want to change the world?
         Eb Eb5 Eb 
There's nothing to it

 Fm

Dont Let It Go chords – Beck

 Chords (EADGBe)
 C : 3x201x or x32013 
 D/F# : 200232
 Fmaj7 : 103210

/ = bass note

-----

Intro:
e|----------------------------|
B|-----0-1-0------------------|
G|-------------2---0---2---0--|
D|-----0-2-0-----3-------2----| x2
A|-------------------0--------|
E|--3--------1----------------|

 G C G F Am7 G 
You better save yourself
 G C G F Am7 G 
From something you can't see
 G C G F Am7 G 
Follow it where it goes
 G C G F Am Em 
Follow it back to me
      F 
I'll keep it here

/ B    / A   / G D/F# 
Don't let it go
              Fmaj7 
Don't let it go
              D/F# 
Don't let it go
              Fmaj7 
Don't let it go away
 Em G         / A  / B D 
You don't have to let it go away

 G C G F Am7 G 
These are some faults we found
 G C G F Am7 G 
Hollowed out from the years
 G C G F Am7 G 
Don't let them wear you out
 G C G F Am Em 
Don't let them turn your mind 
 Fmaj7 
inside out

/ B    / A   / G D/F# 
Don't let it go
              Fmaj7 
Don't let it go away   x2

 Em G          / A  / B D 
You don't have to let it go away

 Bb D 
In the crossfire there's a story
 Bb Am G 
But how it ends we do not know

/ B    / A   / G D/F# 
Don't let it go (don't you see how far it's gone away?)
              Fmaj7 
Don't let it go away   x4

 Em G D 
You don't have to let it go away

 Em F C Am7 D 

-----

The Shaker Song chords – Manhattan Transfer

 The Shaker Song


| G6 G11     | G6 G11     | G6 G11     | G6 G11    |

| G6 G11     | G6 G11     | G6 G11     | G6 G11    |


..sax:
| G6 G11     | G6 G11     | G6 G11     | G6 G11    |

| G6 G11     | G6 G11     | G6 G11     | G6 G11    |


..guitar:
| Cmaj7      | G11          | Cmaj7        | G11        | 

| Cmaj7      | G11          | Cmaj7        | G11        | 



     Cmaj9 Fmaj9 
The fool screams, 'no more!'


               Cmaj9 Fmaj9 
He grabs his shirt and hits the door


          Cmaj9 Fmaj9 
What she needs from him he ig nores.


        Cmaj9 Fmaj9 Cmaj9 Fmaj9 
It's a bore. Oh it's a bore. Oh it's a bore. Oh it's a bore.
(Oh it's a ...)


 Abmaj7/Bb Ebmaj9 
Blast the  radi o.


     Gbmaj7/Ab Dbmaj9 
The hits just come and go.


                   Abmaj7/Bb Ebmaj9           
black out what he knows that he has blown 


              G11    
(That he has blown...)


     Cmaj9 Fmaj9 
The night hangs it's head


        Cmaj9 Fmaj9 
As the fool crawls into bed.


 Cmaj9 Fmaj9 
Still his hungry heart begs to be fed


         Cmaj9 
All the words she once said


           Fmaj9 
(That she said. That she said. That she said.)


            Abmaj9/Bb Ebmaj9  
So then he grabs his Chevro let


             Gmaj7/Ab Dbmaj9 
In one more attempt to get away


                             Abmaj7/Bb Ebmaj9       
But the thoughts of all the crimes of passion lay


            G11 
lay in his way.


 Fmaj9 E7+9 
He can shake the blues,


                 Am7 Gm7 
But you know he still can get confused.


               Fmaj9 G11 
It seems like such a waste


                 Cmaj9 
'Cause he can't shake her.


 C11 
Shake her

 Fmaj9 E7+9 
He can shake his tail, 


                  Am7 Gm7 
But you know his moves are getting stale


             Fmaj9 G11 
He's on the make, but oh, his heart can't fake


               Cmaj9 
That he can't shake her.


          G11 
He can't shake her. 


              Cmaj9 
No, he can't shake her.  


 Solo on verse and choruc



Romance falls like rain
But all the motives are insane
Everytime that he plays the game he feels the pain
(He feels the pain. Who is to blame? Who is to blame?)
He finds a joint that's jive
Guys are spinning girls like 45's.
All of the live bait sink for his lines they are so high
He knows he is beat
As his heart puts on the heat
Run from the street that don't even fit his feet
(Don't fit his feet. Now he can see. Now he can really see)
Tell him here's a telephone
He can beg to let the fool come home
He tells her that his life's a drag alone
(Can't be alone)



He can shake the blues,
But you know he still can get confused.
It seems like such a waste
'Cause he

Unforgiven chords – Beck

 Chords (EADGBe)
Em*: 022010 (Emadd#5)
 Em7 : 022033
 Dm7 : xx0211
 Bbsus2 : x13311
Gadd4: 320013
 Gsus4 : 355533
 Asus2 : x02200

-----

 Am7 C Em *   G Em7   x2

 C Em *          G Em7 
Drive into the night
 C Em *     G Em F 
Far as it goes
  Dm7 C G F 
Away from the daylight
   Dm7          Gadd4   G 
Into the afterglow

 Bbsus2 Gsus4 
Somewhere unforgiven
 Bbsus2 Gsus4 
Time will wait for you

 Am7 C Em *       G Em7 
Down on his street
 C Em *             G Em F 
Just let the engine run
 Dm C G F 
Till there's nothing left
   Dm7              Gadd4   G   
Except the damage done

 Bbsus2 Gsus4 
Somewhere unforgiven
 Bbsus2 Gsus4 
I will wait for you 

 Eb Gsus4 Eb G C Em *   G Em7   x2

 Bb Gsus4 
Somewhere unforgiven
 Bbsus2 Gsus4 
Time will wait for you 
 Bbsus2 Gsus4 
Somewhere unforgiven
 Bbsus2 Gsus4 
I will wait for you 

 Eb Gsus4 Eb G 
Huhhh

 Asus2 

-----

Too Tough To Love chords – The Reckoners

 Too Tough to Love - the Reckoners (Capo 5)

http://www.thereckoners.ca/


Intro:  Am G C F Am G C Am G C 
I look out on this dying sun
      F Am G C 
the day is done, the battle's won
          Am G C 
Are you still in bed did you dream of me
  F Am G C 
nothing but you could ever set me free


        G Cadd9 
I was branded with an awkward grin
   G Cadd9 
Dark brown eyes and suffering
          F Am 
But I'm too tough to love and rearrange
                  G C 
but honey you're just as strange


   Am G C 
I sip my coffee and I catch a buzz
   F Am G C 
no atheists in the sky above
             Am G C 
but I still pray for you to the lord at night
                   F Am 
cause that's what I was taught
         G C 
and it still feels right

         G Cadd9 
I was branded with an awkward grin
  G Cadd9 
Dark brown eyes and suffering
         F Am 
But I'm too tough to love and rearrange
                  G C 
but honey you're just as strange


 Am G C 
Nothing but you is on my mind
       F Am G C 
my friends tell me it's a waste of time
 Am G C 
Part time work to stay alive
       F Am G Am 
There ain't no easy way to say goodbye


         G Cadd9 
I was branded with an awkward grin
  G Cadd9 
Dark brown eyes and suffering
         F Am 
But I'm too tough to love and rearrange
                   G C 
but honey you're just as strange


    Am G C 
I see you in the books I’ve read
       F Am G C 
and wonder if I'm still in your head
    Am G C 
A pink carnation in a field of corn
        F Am G C 
There ain't nothing like a woman's scorn


         G Cadd9 
I was branded with an awkward grin
  G Cadd9 
Dark brown eyes and suffering
         F Am 
But I'm too tough to love and rearrange
                   G C 
but honey you're just as strange

Remain chords – Royal Tailor V3

 Capo 5
Standard tuning

-----------------------------------------------------------
Remain by Royal Tailor
-----------------------------------------------------------

Intro:  Em ,  G ,  C 


Verse 1

 Em G  
   I know you're feeling weighted down
                     C 
   It's all on your shoulders.
 Em G 
   I know the dreams in your head
                   C 
   Don't look any closer.



Pre-Chorus

     Em 
But I'm gonna make you stronger,
       G 
Hold on just a little bit longer,
        C 
'cause I'll be there.
            Em 
When you feel like you're going under
   G 
I'm gonna be there for ya
      C 
Yeah yeah  (yeah yeah)



Chorus

 G 
The sky could fall
                      D 
The ground could shake
                                    Em 
The stars burn out and seasons change
                                  C 
But time will pass and beauty fade
                       G 
All my love will remain
                                 D 
Oooooooooooooooooohhhhhhhhhhhhhhh
                      Em 
All my love will remain,
                                 C 
Oooooooooooooooooohhhhhhhhhhhhhhh
                      G 
All my love will remain.



Verse 2

 G 
When there's a secret to tell,
                      C 
It's locked and I'll keep it close
 Em G 
And when you're walking through fire
                  C 
I'll take you to streets of gold.




Bridge

 Em 
And when the world all around you
                  C 
Feels out of place,
                                          G 
And you can't seem to find a familiar face
                                      D 
I'm here to remind you my love remains

And you know

Shes My Kind Of Girl Tabs by Runner Runner

 This isn't 100% correct, but it's something to go off of.

    Intro
Guitar 1
|-----------------------------------|
|-----------------------------------|
|--7777777722222222-----------------|  (x2 Palm Muted)
|--77777777222222225555555555555555-|
|--55555555000000005555555555555555-|
|------------------3333333333333333-|

|-----------------------------------|
|-----------------------------------|
|--7777777777777777--------22222222-|
|--77777777777777775555555522222222-|
|--55555555555555555555555500000000-|
|------------------33333333---------|


    Verse 1
Guitar 1
|-----------------------------------|
|-----------------------------------|
|--7777777722222222-----------------|  (x4 Palm Muted)
|--77777777222222225555555555555555-|
|--55555555000000005555555555555555-|
|------------------3333333333333333-|

Guitar 2 (wait til Guitar 1 plays riff 2nd time)
|-----------------------------------|
|-----------------------------------|
|-----7---7---7---7---7---7---7---9-|
|-----7---7---7---7---7---7---7---9-|
|-----5---5---5---5---5---5---5---7-|
|-----------------------------------|

|-----------------------------------|
|-----------------------------------|
|-----7---7---7---7---7---777777777-|
|-----7---7---7---7---7---777777777-|
|-----5---5---5---5---5---555555555-|
|-----------------------------------|


    Pre-Chorus
|-------------------------------------|
|-------------------------------------|
|--4444444422222222--------------xxxx-|
|--44444444222222225-------------xxxx-|
|--22222222000000005(hold------)-xxxx-|
|------------------3-------------xxxx-|


    Chorus
|-------------------------------------------------------------------|
|-------------------------------------------------------------------|
|--777777777777777744444444444444442222222222222222-----------------|  (x2)
|--7777777777777777444444444444444422222222222222225555555555555555-|
|--5555555555555555222222222222222200000000000000005555555555555555-|
|--------------------------------------------------3333333333333333-|

|--------|
|--------|
|--7-----|  (Hold This Chord Until Next Verse)
|--7-----|
|--5-----|
|--------|


    Verse 2
Guitar 1
|-----------------------------------|
|-----------------------------------|
|--7777777722222222-----------------|  (x4 Palm Muted)
|--77777777222222225555555555555555-|
|--55555555000000005555555555555555-|
|------------------3333333333333333-|

Guitar 2 (wait til Guitar 1 plays riff 1st time)
|------------------------------------|
|------------------------------------|
|--7-7-7-7-7-7-7-7-7-7-7--------7777-|
|--7-7-7-7-7-7-7-7-7-7-7----75447777-|
|--5-5-5-5-4-4-4-4-5-5-5-457----5555-|
|------------------------------------|

|------------------------------------|
|------------------------------------|
|--7-7-7-7-7-7-7-7-7-7-7-7-7-7-7-7-7-|
|--7-7-7-7-7-7-7-7-7-7-7-7-7-7-7-7-7-|
|--5-5-5-5-5-5-5-5-5-5-5-5-5-5-5-5-5-|
|------------------------------------|

|------------------------------------|
|------------------------------------|
|--7-7-7-7-7-7-7-7-7-7-7-7-7-7-7-7---|
|--7-7-7-7-7-7-7-7-7-7-7-7-7-7-7-7---|
|--5-5-5-5-4-4-4-4-5-5-5-5-5-5-5-5---|
|------------------------------------|


    Pre-Chorus
|---------------------------|
|---------------------------|
|--4444444422222222---------|
|--44444444222222225--------|
|--22222222000000005-(hold)-|
|------------------3--------|


    Chorus
|-------------------------------------------------------------------|
|-------------------------------------------------------------------|
|--777777777777777744444444444444442222222222222222-----------------|  (x2)
|--7777777777777777444444444444444422222222222222225555555555555555-|
|--5555555555555555222222222222222200000000000000005555555555555555-|
|--------------------------------------------------3333333333333333-|


    Bridge
|-------------------------------|
|-------------------------------|
|--77

Ordinary Love Tabs by U2

 As performed on The Tonight Show With Jimmy Fallon

http://m.youtube.com/watch?v=Fum3g86zUPc 

Chords Used :
C#m, G#m, B, F#

    C#m                 G#m
E||-----------------------------------------------|
B||-----5-----5-------------4-----4---------------|
G||---6-----6-----6-------4-----4-----4-----------|
D||-----------------------------------------------|
A||-4-----4-----4---------------------------------|
E||---------------------4-----4-----4-------------|
    B                  F#
E||-----------------------------------------------|
B||-----4----4------------------------------------|
G||---4----4-----4----------3-----3---------------|
D||-----------------------4-----4-----4-----------|
A||-2----2-----2----------------------------------|
E||---------------------2-----2-----2-------------|

Empire chords – Shakira

 C Abm          
Take off all of your skin
  Bb 
And brave when you are free
 C Abm         
Shake off all of your sins
  Bb 
And give them to me
 C Abm        
Close up, lemme back yet
   Bb C Abm Bb 
I wanna be yours, wanna be your hero
                         Fm 
And my heart beats

               C Abm  
Like the empire of the world unite
           Bb C Abm  
We are alive
  Bb 
And the stars make love to the universe
           C Abm Bb 
You're my wild fire every single night
             C Abm     
We are alive
          Bb 
And the stars make love to the universe
 FM 
And you touch me
And I'm like and I'm like and I'm like
 C Abm Bb 
Oooo Oooo
 C Fm Bb 
And I'm like Oooo Oooo
             C Fm Bb 
And I'm like Oooo Oooo

 C Abm Bb 
I will follow you down wherever you go
 C Abm Bb 
I, I'm baby I'm bound to you and do you know?
 C Abm     
Closer, pull me in tight
 Bb C Abm    
I wanna be yours, wanna be your hero
 Bb Fm 
And my heart beats



               C Abm  
Like the empire of the world unite
           Bb C Abm  
We are alive
  Bb 
And the stars make love to the universe
           C Abm Bb 
You're my wild fire every single night
             C Abm     
We are alive
          Bb 
And the stars make love to the universe
 FM 
And you touch me
And I'm like and I'm like and I'm like
 C Abm Bb 
Oooo Oooo  ( We are alivee)
 C Abm Bb 
And I'm like Oooo Oooo( We are alivee)
             C Fm Bb 
And I'm like Oooo Oooo ( We are alivee)

                Abm           
I'm just gonna raise my head
         Bbm 
Welcome to the final end
                C 
And I'm gonna fight (The stars make love to the universe)
                 Abm 
I'm just gonna raise my head
                Bbm 
And hold you close


               C Abm  
Like the empire of the world unite
           Bb C Abm  
We are alive
  Bb 
And the stars make love to the universe
           C Abm Bb 
You're my wild fire every single night
             C Abm     
We are alive
          Bb 
And the stars make love to the universe
 FM 
And you touch me
And I'm like and I'm like and I'm like
 C Abm Bb 
Oooo Oooo  
            C Abm Bb 
And I'm like Oooo Oooo
             C Fm Bb 
And I'm like Oooo Oooo  And I'm Like

Whom Shall I Fear Tabs by Chris Tomlin V2

 Standard Tuning

Intro:

e|---------------------------------10-10-----|------------------------------|
B|-6---6---8-8---6---8-8---6---8-8-------8-8-|---6---8-8--------------------|
G|---5---5-----5---5-----5---5---------------|-5---5-----(3x)--4b5r4--4-2-0-|
D|-------------------------------------------|------------------------------|
A|-------------------------------------------|------------------------------|
E|-------------------------------------------|------------------------------|

Verse 1:

e|-----------7----8------------------------------------8----------------------|
B|-8----8---------------------5---5---5---6/8--6---6--------------------------|
G|----------------------(x4)----5---5---5--------5---5------------------------|
D|---10---10---10---10--------------------------------------------------------|
A|----------------------------------------------------------------------------|
E|----------------------------------------------------------------------------| (x2)

Chorus 1:

The lead guitarist just keeps playing a C (e string 8th fret). He occasionally drops 
down to a B (e 7). Playing the chords sounds better.

Am7         G       C
I know who goes before me
Am7         G       C
I know who stands behind
Am7         F2                    G     C
The God of angel armies is always by my side
Am7         G       C
The One who reigns forever
Am7      G        C
He is a friend of mine
Am7         F2                     G     C
The God of angel armies is always by my side

Repeat the first half of the Intro.


Verse 2:
(Part 1) (x3)
(Part 2) (Part 1) (x2)
(Part 2)

e|(Part 1)---8---8---8-10-12-10---(Part 2)---8---8---8-10-12-10-8-----------|
B|---------8---8---8-----------------------8---8---8------------------------|
G|--------------------------------------------------------------------------|
D|--------------------------------------------------------------------------|
A|--------------------------------------------------------------------------|
E|--------------------------------------------------------------------------|

Back to Chorus 1.

Bridge:

 F2               C              G
And nothing formed against me shall stand
C                                F2
You hold the whole world in Your hands
            C          Am7   G
I'm holding on to Your promises
        F2
You are faithful
        G
You are faithful
 F2               C               G
And nothing formed against me shall stand
C                                F2
You hold the whole world in Your hands
            C          Am7   G
I'm holding on to Your promises
        F2
You are faithful
        G
You are faithful
       Am7     G/B
You are faithful

Back to Chorus 1 (All F2 chords become F). After Chorus 1, go to Chorus 2.

Chorus 2:

C
I know who goes before me
G/B
I know who stands behind
Am7                     F
The God of angel armies is always by my side
C
The One who reigns forever
G/B
He is a friend of mine
Am7                    F
The God of angel armies is always by my side
Am7        F                                  C
The God of angel armies is always by my side

Spit Not Chewed Tabs by My Ticket Home

 -------------------------------------------------------------------------------
                             SPIT NOT CHEWED - MY TICKET HOME
-------------------------------------------------------------------------------
: mgallucci


Tuning:A# F A# D# G C

|Intro|
|---------------------------------|   |-----------------|
|---------------------------------|   |-----------------|
|---------------------------------|   |-----------------|
|-1-0-0-1-1-1-2-2-----------------|x3 |-1-0-0-1-1-1-2-2-|
|-1-0-0-1-1-1-2-2-5-5---5-5---5-5-|   |-1-0-0-1-1-1-2-2-|
|-1-0-0-1-1-1-2-2-----x-----x-----|   |-1-0-0-1-1-1-2-2-|
                  + +   + +   + +
|Chorus|
|---------------------------------|   
|---------------------------------|   
|---------------------------------|   
|-1-0-0-1-1-1-2-2-----------------|x4 
|-1-0-0-1-1-1-2-2-5-5---5-5---5-5-|   
|-1-0-0-1-1-1-2-2-----x-----x-----|   
                  + +   + +   + +

|Chorus Tag|
|-----------------------------------------------------------------|
|-----------------------------------------------------------------|
|-----------------------------------------------------------------|
|-1-0-0-1-1-1-2-2-2-2-2-3-3-3-4-4-1-0-0-1-1-1-2-2-3-3-3-4-4-4-5-5-|x2
|-1-0-0-1-1-1-2-2-2-2-2-3-3-3-4-4-1-0-0-1-1-1-2-2-3-3-3-4-4-4-5-5-|
|-1-0-0-1-1-1-2-2-2-2-2-3-3-3-4-4-1-0-0-1-1-1-2-2-3-3-3-4-4-4-5-5-|

|Verse|
|--------------------------|
|--------------------------|
|--------------------------|
|-3-3-3-4-3-4--3-3-3-4-3-4-| x8
|-3-3-3-4-3-4--3-3-3-4-3-4-|
|-3-3-3-4---4--3-3-3-4---4-|


|Prechorus 1| 1 Guitar
|----------------------------------|
|----------------------------------|
|----------------------------------|
|-1-0-0-1-1-1-2-2--1-0-0-1-1-1-2-2-|
|-1-0-0-1-1-1-2-2--1-0-0-1-1-1-2-2-|
|-1-0-0-1-1-1-2-2--1-0-0-1-1-1-2-2-|
                                      

|Chorus|
|---------------------------------|   
|---------------------------------|   
|---------------------------------|   
|-1-0-0-1-1-1-2-2-----------------|x8 
|-1-0-0-1-1-1-2-2-5-5---5-5---5-5-|   
|-1-0-0-1-1-1-2-2-----x-----x-----|   
                  + +   + +   + +

|Verse 2| Lead scratching effect on guitar
|--------------------------|
|--------------------------|
|--------------------------|
|-3-3-3-4-3-4--3-3-3-4-3-4-| x8
|-3-3-3-4-3-4--3-3-3-4-3-4-|
|-3-3-3-4---4--3-3-3-4---4-|
 

|Prechorus 2| 1 Guitar          Both Guitars Slide
|-----------------------------------------|
|-----------------------------------------|
|-----------------------------------------|
|-1-0-0-1-1-1-2-2--1-0-0-1-1-1-2-2--12\\\-|
|-1-0-0-1-1-1-2-2--1-0-0-1-1-1-2-2--12\\\-|
|-1-0-0-1-1-1-2-2--1-0-0-1-1-1-2-2--12\\\-|


|Chorus|
|---------------------------------|   
|---------------------------------|   
|---------------------------------|   
|-1-0-0-1-1-1-2-2-----------------|x8 
|-1-0-0-1-1-1-2-2-5-5---5-5---5-5-|   
|-1-0-0-1-1-1-2-2-----x-----x-----|   
                  + +   + +   + +

|Bridge Build| Rhythm
|------------------------------------------------------------------|
|------------------------------------------------------------------|
|----------------------------------------------------6-6-6-6-6-6-6-|
|--5-5---5-5---5-5--5-6-5-0-2-1-0-1-0-0-5-5--5-6-5-0-5-5-5-5-5-5-5-|
|--5-5---5-5---5-5--5-6-5-0-2-1-0-1-0-0-5-5--5-6-5-0-4-4-4-4-4-4-4-|
|--5-5---5-5---5-5----6-5-0-2-1-0---0-0-5-5----6-5-0---------------|

|Bridge Build| Rhythm Cont.                   
|-------------------------------------------------|
|-----------------------------------------------4-|
|-----------------------------------------------4-|
|--5-5---5-5---5-5--5-6-5-0-2-1-0-1-0-0-5-5---x-4-|
|--5-5---5-5---5-5--5-6-5-0-2-1-0-1-0-0-5-5---x---|
|--5-5---5-5---5-5----6-5-0-2-1-0---0-0-5-5---x---|
                                                +

                                              ^^^Both guitars
 
|Bridge Build| Lead