Month: March 2014

Destinos Tabs by Have A Nice Life

 Have A Nice Life - Destinos
Song from Voids, disc 2: What Happened Next Was Worse
Written by Dan Barrett and Tim Macuga.

Lyrics taken from last.fm page.

first guitar:

(intro)                                     (repeat 4 times)
e|-----------------------------------------|
B|-----------------------------------------|
G|-6666-6666-6666-6666---------------------|
D|-6666-6666-6666-6666-8888-8888-8888-8888-|
A|-5555-5555-5555-5555-8888-8888-8888-8888-|
E|---------------------6666-6666-6666-6666-| 

(verse 1)
The hardest spot to sleep in is always home, as soon as I get caught up I’m always gone 
e|---------------------------------------------------------------------------------|
B|---------------------------------------------------------------------------------|
G|-6666-6666-6666-6666---------------------6666-6666-6666-6666---------------------|
D|-6666-6666-6666-6666-8888-8888-8888-8888-6666-6666-6666-6666-8888-8888-8888-8888-|
A|-5555-5555-5555-5555-8888-8888-8888-8888-5555-5555-5555-5555-8888-8888-8888-8888-|
E|---------------------6666-6666-6666-6666---------------------6666-6666-6666-6666-|

And so you retreat into all of your cliches, you're tired and comfortable in your oh-so-boring phase 
e|---------------------------------------------------------------------------------|
B|---------------------------------------------------------------------------------|
G|-6666-6666-6666-6666---------------------6666-6666-6666-6666---------------------|
D|-6666-6666-6666-6666-8888-8888-8888-8888-6666-6666-6666-6666-8888-8888-8888-8888-|
A|-5555-5555-5555-5555-8888-8888-8888-8888-5555-5555-5555-5555-8888-8888-8888-8888-|
E|---------------------6666-6666-6666-6666---------------------6666-6666-6666-6666-|

(chorus)
I'm doing it now, at least I know am, at least I caught myself before I sent this out 
e|-----------------------------------------|
B|-----------------------------------------|
G|---------------------7777-7777-7777------|
D|-3333-3333-2222-2222-7777-7777-7777------|
A|-3333-3333-3333-3333-5555-5555-5555------|
E|-1111-1111-0000-0000---------------------|

I'm doing it now, at least I know am, at least I caught myself before I sent this out 
e|-----------------------------------------|
B|-----------------------------------------|
G|---------------------7777-7777-7777------|
D|-3333-3333-2222-2222-7777-7777-7777------|
A|-3333-3333-3333-3333-5555-5555-5555------|
E|-1111-1111-0000-0000---------------------|

Into this stupid world that doesn't give a damn 
e|-------------------------------------|
B|-------------------------------------|
G|-------------------------------------|
D|-88888888-77777777-88888888-77777777-|
A|-88888888-77777777-88888888-77777777-|
E|-66666666-55555555-66666666-55555555-|

Oh, what kind of fool do you think I am? 
e|-----------------------------------------------------------------------------|
B|-----------------------------------------------------------------------------|
G|-----------------------------------------------------------------------------|
D|-12-12-12-12-11-11-11-11-10-10-10-10-9-9-9-9-7-7-7-7-7-7-7-7-7-7-7-7-7-7-7-7-|
A|-12-12-12-12-11-11-11-11-10-10-10-10-9-9-9-9-7-7-7-7-7-7-7-7-7-7-7-7-7-7-7-7-|
E|-10-10-10-10-9--9--9--9--8--8--8--8--7-7-7-7-5-5-5-5-5-5-5-5-5-5-5-5-5-5-5-5-|

What kind of fool do you think I am? 
e|---------------------------------------------------------------------------------------------|
B|---------------------------------------------------------------------------------------------|
G|---------------------------------------------------------------------------------------------|
D|-12-12-12-12-11-11-11-11-10-10-10-10-9-9-9-9-7-7-7-7-7-7-7-7-7-7-7-7-7-7-7-7-8-8-8-8-8-8-8-8-|
A|-12-12-12-12-11-11-11-11-10-10-10-10-9-9-9-9-7-7-7-7-7-7-7-7-7-7-7-7-7-7-7-7-8-8-8-8-8-8-8-8-|
E|-10-10-10-10-9--9--9--9--8--8--8--8--7-7-7-7-5-5-5-5-5-5-5-5-5-5-5-5-5-5-5-5-6-6-6-6-6-6-6-6-|


(intro)            

Proof chords – I Am Kloot

 Tuning : EGDGBD, capo on 4th fret 
i. E . capo' D  notes are  G# B F# B D# F# 

Kloot afficionados will recognise this as one of the band's best loved tunes. 

They've recorded it twice - on 'I Am Kloot' (2003) and 'Sky At Night' (2010).

Unusually for IAK it uses a different tuning capo'd at fret 4, 
effectively  A Badd9 . 

I've seen this tabbed several times with standard tuning, 
but with respect to those efforts they do not reflect how 
the band / John Bramwell play it. 

It took several attempts for me to crack it, 
but I'm very confident this is a faithful representation of how 
the band play it.


Chords
======

 E         x5505x
Ebmaug5  x4403x
 Dbm7      x2201x
 Badd9     x0000x

Riff1
=====

    Badd9 Dbm7 Badd9 
F# --------------|
D# -0--0-0--1---0|
B  -0--0-0--0---0|
F# -0--0-0--2---0|
B  0--0-----2---0|
G# --------------|



Intro
=====
 E    Ebmaug5    Dbm7 Badd9    Riff1
 E    Ebmaug5    Dbm7 Badd9    Riff1


Verse 1
=======
 E                            Ebmaug5
Hey could you stand another drink
                         Dbm7 
I'm better when I don't think
                 Badd9    Riff1
Seems to get me through
 E                             Ebmaug5
Say do ya wanna spin another line
                    Dbm7 
Like we had a good time
                 Badd9    Riff1
Not that I need proof
 E                           Ebmaug5
Swell we're living in a ho-tel
                      Dbm7 
Someone's ringing my bell
                     Badd9    Riff1
In a room without a view
 E                             Ebmaug5
Hey I heard you read another book
                       Dbm7 
Should I take another look
                  E 
Who am I without you


Refrain 1
=========

Ebmaug5     Dbm7 Badd9    Riff1
       Ahh-ooo    aahhh 
 E    Ebmaug5     Dbm7 Badd9    Riff1
           Ahh-ooo    aahhh   aahhh


Verse 2
=======

 E                            Ebmaug5
Hey could you stand another drink
                         Dbm7 
I'm better when I don't think
                 Badd9    Riff1
Seems to get me through
 E                             Ebmaug5
Say do ya wanna spin another line
                    Dbm7 
Like we had a good time
                 Badd9    Riff1
Not that I need proof
 E                           Ebmaug5
Swell we're living in a ho-tel
                      Dbm7 
Someone's ringing my bell
                     Badd9    Riff1
In a room without a view
 E                             Ebmaug5
Hey I heard you read another book
                       Dbm7 
Should I take another look
                  E 
Who am I without you


Refrain 2
=========

Ebmaug5     Dbm7 Badd9    Riff1
       Ahh-ooo    aahhh 
 E    Ebmaug5     Dbm7 Badd9    Riff1
           Ahh-ooo    aahhh   aahhh


End
===

 E                              Ebmaug5
La la la la la la la la la la la la la la la la
 Dbm7 Badd9                    Riff1
La la la la la la la la la la la la la la la la la la la la
 E                              Ebmaug5
La la la la la la la la la la la la la la la la
 Dbm7 Badd9 
La la la la la la la la la la la la 

Funnel Of Love chords – Wanda Jackson V2

 G F 
Here i go falling down down down
 G C G 
My mind is a blank, my head is spinning around and around
         Dm C G 
As i go deep into the funnel of love


 G F 
It's such a crazy crazy feeling
 G C G 
I get weak in my knees, my poor old head is a' reeling
         Dm C G 
As i go deep into the funnel of love


 G F 
I tried and i tried to run and hide
 G C 
I even tried to run away-ay-ay
     G F 
You just can't run from the funnel of love

 Dm  (break)                  G 
 It's bound to get you someday



G, Dm, G



 G F 
It's such a crazy crazy feeling
 G C G 
I get weak in my knees, my poor old head is a' reeling
         Dm C G 
As i go deep into the funnel of love


 G F 
I tried and i tried to run and hide
 G C 
I even tried to run away-ay-ay
     G F 
You just can't run from the funnel of love

 Dm  (break)                  G 
 It's bound to get you someday



 G F 
Here i go falling down down down
 G C G 
My mind is a blank, my head is spinning around and around
         Dm C G 
As i go deep into the funnel of love

 Dm C G 
Deep into the funnel of... love
 Dm C G 
Deep into the funnel of love
 Dm C G 
Deep into the funnel of... love

Halfmans Song chords – Miracle Of Sound

 . Not sure 'bout chorus. Feel free to correct.



            Am Em 
There are some who are born distinguished
            Am Em 
There are some who are raised in praise
     Dm Am 
But me I was always the last in line
     F Em Am 
A blot in my father's gaze


No cheekbones chiselled on a feline face
No skill or savvy with a sword
But this game we all play is won in wily ways
And sly is this littlest lord

   Bb Am 
Cruel tricks of romance
     G Am 
Degraded by their spite
       Bb Am 
You snub your cub too many times
      G Bb 
You just might feel his bite...

Beware beware of the words I twist
I am small but my reach is long
And the ravens black against the winter's mist
Are whispering the half-man's song
Whispering the half man's song...

The land is a blooming orchard
With fruits so juicy and ripe
With a clink of a coin loose the lion's loin
Play a tune on the half man's pipe

In the arms of a whore I made a promise
Sinking deeper into danger every day
Cut through all their shit with a brazen wit
Moulding puppets from their minds of clay

I'm no man of honour
Myself is my true king
But somewhere deep within me
The bells of conscience ring

Beware beware of the words I twist
I am small but my reach is long
And the ravens black against the winter's mist
Are whispering the half-man's song
They're whispering the half man's song...
Whispering the half man's song...



By Ohme

Something New chords – Dino Valenti

 This is my interpretation, this is written by Dino Valente  me and I 
also listened and copied the lyrics down, I do not own this song. But as I was 
saying this time I transcribed it. 

Intro:  Gm F Bb Gm F Gm G Bb Gm F# Gm Eb F Dm Gm Eb Dm G Cm Dm Gm Bb Am Gm F Gm Bb Gm  
You Tell Me those guys don't turn you on anymore

 Bb Gm Dm Fm Cm Gm  
and you don't think they're as gone as you used to

 Eb Gm Bb Gm  
here is a garden unicorns knowin' 

 Bb Gm  
the sudden enchantment of ever-now

 Eb Dm  
you don't have to cry babe

 Eb Bb Dm  
I'll be standing by my love

 Eb F Dm D 
anytime you're tryin' something brand new
  
        Bb Gm  
you tell me that they just bring you down 
  Bb Fm F Gm 
and that you don't even come around my love

 D Cm C Gm Bb C 
here is a tower, straight and tall

 Eb   
somewhere to run to, when you fall

 F Dm  
you don't have to cry babe

 Eb Bb Dm  
sing another song love

 Eb D Bb Dm  
you may find you're tryin something brand new
like nowhere to run, no reason to hide my love
sing you song the way you want to
I know how hard the others have tried my love
to hold you down, but I don't want to
Anyway, I know more about you baby then they do
and honey I don't even know your name
But I know guys like that could never understand a creature like you
not while their still locked in playing games
You tell me that they can't even look in your eye
could that mean that they weren't meant for paradise
There in that castle, a princess is sleeping forever dreaming dreams of love

come walk in the sun babe, singe another song love
you may find you're trying something that's brand new
like baby I know you think you're out of your mind
but you may find that someone has found you
and I know you have tried other kinds here
but don't you think it's time for something new
Anyway, I know more about you baby than they do
And honey I don't even know your name
But I know guys like that could never ever know you
not while they're still locked in playing games

you tell me that all your skies are grey baby
and all those boys took all your pretty toys away
Here is your heart, went to my mind
the things we find here will last through time

let them have those toys babe, boys will be boys my love
and don't you think it's time you tried something brand new

you can't stay there babe, those cats are square babe
they don't even know you're something brand new

Devil Of A Time chords – Mischief Brew

 Mischief Brew 
Devil Of A Time


this is my first song on here 
i use capo on 2 but dont think its needed


 Am Bm Cm Bm Am Bm Cm Bm Am Cm Bm Bbm F E Am E Am  
Didn't we have a devil of a time? 
 Am F E  
Didn't we have a devil of a time?  
 Am             
A stranger stumbled into town 
 Dm 
Talkin’ turnin' tables 'round 
 F E Am  
Didn't we have a devil of a time? 
     Am 
We shot and slammed
       E Am 
The glasses upside down
  Am 
Shot and slammed
       F E 
the glasses upside down 
    Am  
I was the last one to take a mask 
          Dm  
But the first one to strike a match 
  F 
Shot and slammed
        E Am 
The glasses upside down
  Am E  
Didn’t I paint a face
                   Am 
On the sleeping guard? 
  Am F  
Didn’t I paint a face
                    E 
on the sleeping guard? 
         Am  
Well convention sleeps
when the sun goes down
    Dm  
so copper try and catch me now
   F E  
Didn’t I paint a face
                    Am 
on the sleeping guard?

            Am E  
well the silent sirens wait
             Am 
in the allyways 
       Am F 
the silent sirens wait
             E 
in the allyways 
           Am 
till the stone of order's cracked in two 
 Dm 
  We can spin the red and blue 
 F E  
silent sirens wait in the ally-
  Am Bm Cm Bm  
ways         the ally-
  Am Bm Cm Bm  
ways     the ally- 
 Am Cm Bm Bbm F E  
ways
 E 
 for the Moon is under-
  Am Bm Cm Bm  
water 
 Am Bm Cm Bm  
     of the carnival 
 Am Cm Bm Bbm  
Can-na-ls 
  F Am  
got to rattle fragile boarders
               B7 E7 E  
for whats a city with no underground
  Am E  
ya ya-ya ya-ya ya-ya-ya 
  E Am 
ya ya-ya ya-ya ya-ha 
 Am Dm F  
ya ya ya ya ya ya ya ya

           E 
no underground
 Am E Am  
  to wander through a Venetian maze 
         Am 
when I never marched
        F E 
the streets of New Orleans 
          Am  
but the Devil's brew I drank tonight 
  Dm 
tomorrow have me exorcised 
       F E Am  
and tighten up my necktie once again
  Am E Am  
crown me the merry Lord of Misrule 
          Am  
with my crack mask, lei,
                         E7 
hangover and a ragged suite 
      Am  
at curbside I crept from sleep 
     Dm  
some stranger left behind his reeds 
  F E Am  
crown me the merry Lord of Misrule
      E  
Hey Hey 
for the Moon is under- 
 Am <spa

Oppa chords – Wax

  song: Oppa/오빠  by Wax/왁스 
 capo: 3rd thread
 Have fun! x)

  Em 
Gunyang phyonhan nu kim i chohaso
  Am 
chohun saramira jeng ga gheso
  Em 
hajiman ige mwoya 
  C 
jomjom gamjaro nukyojyo 
  Em D Em 
ama sarang hago isosnaboa


(chorus)
  Am 
Oppa na man baraboa 
  G 
boaboa gurohge boaboa 
  D Em 
apha maumi apha ne man oe morrajwo
  Am  
oppa gunyonun oe boa 
  G 
goboa gunyonun napa 
  D Em 
boaboa ije nanun gajyoboa 
  Em 
ije nanun gajyoboa


  Em 
Oe nar yojaro an bonungani 
  Am 
jaku andoni dago hanungoni 
  Em 
darun yoninduror boaboa 
  C 
choumen opparo da jichaghe 
  Em D Em 
gyorgug saranghayo chasaraga


Repeat (chorus)

(rap)
This is the time to rock i see the your future now. 
Are you feel me are you feel me Break your brain, crack your mind.
Only for the crazy time. Follow Wax. Follow Wax. Everybody come on baby Wax!

Amugosdo anira hedo nanun sangcho bada (nanun sangchobada) 
iron nega sirhdahedo jichyoborir nega anya

Repeat (chorus)


(Original)

왜 날 여자로 안 보는거니
자꾸 안된다고 하는거니

다른 연인들을 봐봐
처음엔 오빠로 다 시작해
결국 사랑하며 잘 살아가

오빠 나만 바라봐
바빠그렇게 바빠
아파 마음이 아파
내 맘 왜 몰라줘
오빠 그녀는 왜 봐
거봐 그녀는 나빠
봐봐 이제 나를 가져봐
이제 나를 가져봐

Rap)
this is the time to rock I see the your future now
are you feel me are you feel me
break your brain crack your mind
only for the crazy my time follow wax follow wax
everybody come on baby wax

아무것도 아니라 해도
나는 상처받아 (나는 상처받아)
이런 내가 싫다해도
지쳐버릴 내가 아냐

오빠 나만 바라봐
바빠그렇게 바빠
아파 마음이 아파
내 맘 왜 몰라줘
오빠 그녀는 왜 봐
거봐 그녀는 나빠
봐봐 이제 나를 가져봐
이제 나를 이제 나를
이제 나를 가져봐

Let It Go Acoustic chords – Idina Menzel

 
------------------------------------------------------------------
                      Overview (Please Read)
------------------------------------------------------------------
This is an acoustic guitar arrangement for the song Let It Go, from Disney's Frozen. 
This arrangement was made because of the difficulty of transposing an orchestral 
score to acoustic guitar, and combines parts unique to the soundtrack version with
parts unique to the single (Demi Lovato) version. Some chords had to be changed 
because the two versions are in different keys. This arrangement uses the original
soundtrack key of A flat major (starting in the relative minor). Like most songs 
that use a capo, these chords are  the chord shape, not the chord sound.
That is, despite fingering a G chord, you're actually play Ab.

------------------------------------------------------------------
---------------------------PLEASE NOTE----------------------------
-   This arrangement is different then any recorded versions     -
-                    and is intended to be                       -
-          Please do not comment about any inaccuracies          -
-              compared to either recorded versions              -      
------------------------------------------------------------------

------------------------------------------------------------------
                         Chords and Tuning
------------------------------------------------------------------
Key of Ab Major

Standard Tuning
Capo on 1

Chord Shapes

 G  (320033)
 D  (xx0232)
Dadd11/ F#  (200233)
 C  (x32010
 Cadd9  (x32033)
 Em  (022000)
 Em7  (022033)
 A  (x02220)
 Am  (x02210)
 Asus4  (x02230)
 G/B   (x20033)
 Gm/Bb  (x10033)
 Cadd2  (x32030)


-------------------------------------------------------------------
                             Let It Go
-------------------------------------------------------------------


[Verse 1]

     Em C D Asus4 Am 
The snow glows white on the mountain tonight not a footprint to be seen

   Em C D Asus4 A 
A kingdom of isolation and it looks like I'm the queen
              
 Em C D Asus4 Am 
The wind is howling like this swirling storm inside

 Em D A 
Couldn't keep it in, heaven knows I've tried

                    
[Pre-chorus 1]

 D C 
Don't let them in, don't let them see

                                     D 
Be the good girl you always have to be

                                     C 
Conceal, don't feel, don't let them know

                Cadd2 
Well, now they know


[Chorus 1]
 
        G           Dadd11/ F# 
Let it go, let it go

       Em7 Cadd9 
Can't hold it back anymore
   
        G           Dadd11/ F# 
Let it go, let it go 

       Em7 Cadd9 
Turn away and slam the door

 G        Dadd11/ F# Em7 Cadd9 
I don't care what they're going to say

         G/B Gm/Bb 
Let the storm rage on

     C 
The cold never bothered me anyway


[Break]*

 G ,  Dadd11/ F# 


[Verse 2]

 Em C D Am 
  It's funny how some distance makes everything seem small

         Em D Am A 
And the fears that once controlled me can't ge

Supermoon chords – Wooden Wand

 Supermoon - Wooden Wand

capo 5th fret

 G G C G 
Well, I fell out with you around the time of the Supermoon

        C G C G 
In a whirlpool of lies and some high greedy tides

       C G D 
That swallowed what remained of your pride

      G C G 
A capsized silhouette against a sunset copper red

       C G C G 
Well, no one's gonna climb, well, no one's gonna climb

     C G D 
No one's gonna climb this sounding line


         G C 
By the mark twain at two fathoms
         G C 
By the deep six at six fathoms
       G D 
I am slowly sinking down
       Am D 
I am slowly sinking down



I was always holding my breath as if there wouldn't be any left
After you took to mine, siphoned my blood and my time
I don't believe I will climb this sounding line

By the mark twain at two fathoms,
By the deep six at six fathoms
My heart and I decide to drown
My heart and I decide to drown

By the mark twain at two fathoms
By the deep six at six fathoms
I am slowly sinking down
I am slowly sinking down

 C G 
You were to me a ringing fever in my head
                       D C    
An old letter tucked inside a book I've never read
   C G 
I've made a home some place you'd never want to stay
                         D 
300 miles or 100 league away

I'm not leaving any clues when I leave this afternoon
No one will ever find
No one will ever find
No one will ever find my sounding line

Stranger Things Have Happened Tabs by Foo Fighters V7

 FOO FIGHTERS - STRANGER THINGS HAVE HAPPENED (TAB)

This is a tablature of a great acoustic song by Foo Fighters. I decided to tab it
because I didn't find any 100% correct version from the internet.
I've done all the tabbing myself and I believe it's really really close to the original.
Please comment if you think some part should be tabbed differently.
ENJOY!


UPDATED 27.03.2014

h - hammer on
p - pull off
/ - slide
^ - bend
x - muted string


MAIN RIFF

e|------------------------------------------|
B|------------------------------------------|
G|-------2----2--2--------------------------|
D|-------0----0--2------------0----0--0-----|
A|--2-2-----2-------0---------0----0--2-----|
E|--------------------2-2-2------2-------1--|


e|---------------------------------------------|
B|---------------------------------------------|
G|---------------------------------------------| 
D|--------0---0--2-------0---0---0--2------0---|
A|--------2----------------------------0h2-----|
E|-0-0-0----0-------0-0----0---0---------------| REPEAT 7x, then


e|------------------------------------------|
B|------------------------------------------|
G|-------2----2--2--------------------------|
D|-------0----0--2------------0----0--0-----|
A|--2-2-----2-------0---------0----0--2-----|
E|--------------------2-2-2------2-------1--|


e|--------------------------------------------|
B|--------------------------------------------|
G|--------------------------------------------| 
D|--------0---0--2-------0---0-2--------------|
A|--------2---2----------2---2----------------|
E|-0-0-0----0-------0-0----0-----0-0-0-0------|


CHORUS

You were not alone, 	  dear loneliness. 

e|-------0--0--0--0--0--0--0---0--0--0--0--0--0--0--0--0--|
B|-------0--0--0--0--0--0--0---0--0--0--0--0--0--0--0--0--|
G|-------4--4--4--4--4--4--4---2--2--2--2--2--2--2--2--2--|
D|-------4--4--4--4--4--4--4---4--4--4--4--4--4--4--4--4--|
A|-------2--2--2--2--2--2--2---4--4--4--4--4--4--4--4--4--|
E|--------------------------------------------------------|

You forgot, but I	 remember this.		    Oh -

e|------0--0--0--0--0--0--0---0--0--0--0--0--0--0--0--0--|
B|------3--3--3--3--3--3--3---0--0--0--0--0--0--0--0--0--|
G|------4--4--4--4--4--4--4---1--1--1--1--1--1--1--1--1--|
D|------5--5--5--5--5--5--5---2--2--2--2--2--2--2--2--2--|
A|------5--5--5--5--5--5--5---2--2--2--2--2--2--2--2--2--|
E|----------------------------0--0--0--0--0--0--0--0--0--|

  Stranger, stranger, stranger things have happened I know

e|---2--2--2--2--2--2--2----0--0--0--0--0--0--0--0--0--0-|
B|---3--3--3--3--3--3--3----0--0--0--0--0--0--0--0--0--0-|
G|---2--2--2--2--2--2--2----2--2--2--2--2--2--2--2--2--1-|
D|---0--0--0--0--0--0--0----4--4--4--4--4--4--4--4--3--2-|
A|---0--0--0--0--0--0--0----4--4--4--4--4--4--4--4--3--2-|
E|--------------------------------------------------1--0-|


e|--0--0--0--0---0--0---0--0--0--0--0--0--0--0--0--0--|
B|--0--0--0--0---0--0---0--0--0--0--0--0--0--0--0--0--|
G|--1--1--1--1---2--2---1--1--1--1--1--1--1--1--1--1--|
D|--2--2--2--2---2--2---2--2--2--2--2--2--2--2--2--2--|
A|--2--2--2--2---2--2---2--2--2--2--2--2--2--2--2--2--|
E|--0--0--0--0---0--0---0--0--0--0--0--0--0--0--0--0--|  REPEAT



\\ MAIN RIFF x2 // +

2. GUITAR RIFF

e|---------5-----------5--5/7-----------5----------4----------0----|
B|------3-----------3----------------3-------3----------3----------|
G|---4-----------4----------------4-------------4----------4-------|
D|-----------------------------------------------------------------|
A|-----------------------------------------------------------------|
E|-----------------------------------------------------------------|


e|---------5-----------5--5/7----------5----------4----------4^p0----7---|
B|------3-----------3---------------3-------3----------3-----------3-----|
G|---4-----------4---------------4-------------4----------4--------------|
D|---------

Calling Me Names intro Tabs by Good Old War

 -------------------------------------------------------------------------------
	                 "Calling Me Names" Intro - Good Old War
-------------------------------------------------------------------------------

Tuning: Standard
Capo on the 8th Fret

C  - X32010
Em - 022000
F  - X33211
G  - 320033

    S S S S S S E   S S S S S S E   S S S S S S E   S S S S S S E
    C                               Em
e|------0-----------------0-------------0-----------------0------------------|
B|--------1---------1---------1-----------0---------0---------0--------------|
G|----0-------0-------0---------------0-------0-------0----------------------|
D|------2---2---2-------2---2---2-------2---2---2-------2---2---2------------|
A|--3---------------3---------------2---------------2------------------------|
E|---------------------------------------------------------------------------|

    S S S S S S E   S S S S S S E   S S S S S S E   S S S S S S E
    F                               F               G
e|------1-----------------0-------------1---------------3--------------------|
B|--------1---------1---------1-----------1---------------3------------------|
G|---2--------2-------0---------------2-------2-------0-------0--------------|
D|------3---3---3-------3---3---3-------3---3---3-------0---0---0------------|
A|--3---------------3---------------3---------------2------------------------|
E|---------------------------------------------------------------------------|

    S S S S S S E   S S S S S S E   S S S S S S E   S S S S S S E
    C                               Em
e|------0-----------------0-------------0-----------------0------------------|
B|--------1---------1---------1-----------0---------0---------0--------------|
G|----0-------0-------0---------------0-------0-------0----------------------|
D|------2---2---2-------2---2---2-------2---2---2-------2---2---2------------|
A|--3---------------3---------------2---------------2------------------------|
E|---------------------------------------------------------------------------|

    S S S S S S E   S S S S S S E   W
    F                               G
e|------1-----------------0---------3----------------------------------------|
B|--------1---------1---------1-----3----------------------------------------|
G|---2--------2-------0-------------0----------------------------------------|
D|------3---3---3-------3---3---3---0----------------------------------------|
A|--3---------------3---------------2----------------------------------------|
E|----------------------------------3----------------------------------------|

Sngyn Reunalla chords – Mikko Pohjola

 Mikko Pohjola - Sangyn reunalla

: Nimira

Capo 6

Intro:
 Em C G Em C G C C2 Em 
Makuuhuoneessa
 G D/F# Em 
Kuvat kehyksissa kaannettyina poydalla
       C C2 Em 
Ikkunalaudalla
 G D/F# Em C G 
Vanhat oppikirjat pitaa kukkaa pystyssa

 Em C G C C2 Em 
Ala huolehdi
 G D/F# Em 
Sa sanot ja tyonnat itses kiinni kylkeeni
         C C2 Em 
Lahelle paastankin
 G D/F# Em C G 
Mutta taa on tilapaista, sa et jaa mun viereeni

 Em C G Am Em 
Kuinka taman saamme loppumaan?
        G D/F# 
Se ois helpompaa jos kiinni jaataisiin
 Am Em 
Luokses palaan aina uudestaan
             G D/F# 
Enka sankys reunalta osaa kaantyy takaisin
   Em C G Em C G 
Kotii - ii - iin, kotii - ii - iin

              C C2 Em 
Matto sangyn reunalla
 G D/F# Em 
Sovittelen jalkani sen kahteen painaumaan
            C C2 Em 
Oon jonkun paikalla
 G D/F# Em C G 
Miehen, jonka tyynylla nyt etsin un - ta
 Em C G Em 
      Etsin unta

 Am Em 
Kuinka taman saamme loppumaan?
        G D/F# 
Se ois helpompaa jos kiinni jaataisiin
 Am Em 
Luokses palaan aina uudestaan
             G D/F# 
Enka sankys reunalta osaa kaantyy takaisin

 Am Em 
Kuinka taman saamme loppumaan?
        G D/F# 
Se ois helpompaa jos kiinni jaataisiin
 Am Em 
Luokses palaan aina uudestaan
             G D/F# 
Enka sankys reunalta osaa kaantyy takaisin, takaisin
   Em C G Em C G 
Kotii - ii - iin, kotii - ii - iin, takaisin
   Em C G Em C G 
Kotii - ii - iin, kotii - ii - iin

Zij Maakt Het Verschil chords – De Poemas V2

 De Poema's - Zij maakt het verschil
I found this tab somewhere on the internet, I didn’t make it myself… 
I hope you enjoy playing it!

Intro 
 Am Em  I   F  I  Am Em  I  F  I  Dm7  I  G  I

   Am Asus2 Em F 
Ze is geen medicijn tegen het tikken van de klok
	 G C F G 
Geen hoop, geen gids geen haven in de nacht
	 Am Asus2 Em F 
Geen bron in de woestijn als je kapot gaat van de dorst
	     Dm G 
Niet een glimlach op je aller slechtste grap
      Am Asus2 Em F 
Ze is geen hit refrein dat van de steigers klinkt
	 G C F G 
Niet de allerduurste wijn die je zonder kater drinkt
	 Am Asus2 Em F 
Geen bloementuin in bloei niet een uit duizend nachten
	 G C F G 
Geen uitgestoken hand niet het eind van al mijn wachten
	 Am Asus2 Em F 
Nee meer nog dan ik eigenlijk toegeven wil,
 Dm7 G 
-------------Zij maakt het verschil

 Am Em  I   F  I  Am Em  I  F  I

      Am Asus2 Em F 
Ze is geen slap excuus voor wat ik graag had willen zijn
	 G C F G 
Geen droom, geen doel, geen stok om mee te slaan
	 Am Asus2 Em F 
Geen enkele garantie voor een lang gelukkig leven
		 Dm7 G 
Ze is geen antwoord op de vraag van ons bestaan
	 Am Asus2 Em F 
Niet de mooiste symfonie onder de film genaamd: ‘Wij Tweeën’
	 G C F G 
Niet het schone koele bed dat mijn koortsen weg kan nemen
	 Am Asus2 Em F 
Niet het ritme van mijn hart, niet het zuiverste geweten
	 Dm7 G 
Ze kwam niet op het juiste moment,
 Dm7 G 
En dat kan me ook niet schelen
	 Am Asus2 Em F 
Want meer nog dan ik eigelijk toegeven wil,
 Dm7 G 
-----------Zij maakt het verschil



	 C Cmaj7 F Am 
Tussen alles wat ik had en hoe dat opeens ging leven
	     C Cmaj7 F G 
Wat met potlood staat geschetst kan met kleur worden in getekend
	 C Cmaj7 F Am 
Tussen nooit niets aan de hand en van alles te beleven
	 C Em F 
Tussen nooit en misschien, heel soms
	 Dm G 
Tussen ik en ons
	 C Em7 F Am 
Zoveel zangers, zoveel woorden en moet allemaal gezegd
	 C Em F G 
Maar wat ze ook proberen geen vergelijking is terecht
	 C Em F G 
Misschien is het wat simpel maar alles wat ik horen wil
 Dm7 G 
----------------Zij maakt het verschil
	 Dm7 G 
Zij zij, ----zij maakt het verschil


	 Am Asus2 Em F 
Want ze is geen goed gesprek waar geen hond op zit te wachten
	 G C F G 
Niet de vlag waar ik onder strijd geen advies b

Firelight chords – Young The Giant

 Firelight"
Capo on 4th

Hey, this is my first tab so be gentle :). I don't know if every chord is right, but I couldn't get it exactly like the original. Hope you enjoy!



 G 
I've been waiting many hours
 G 
By the silent moon
 G 
In the wild, the jungle flower
 G 
Your toxic perfume

 D C G 
Tell my friends I'm gone, it's true
 G D 
I've past on now
 D C G 
To the eyes of a dark, lost blue

 G  –  Bm  –  G  –  Bm  -  Bm G Bm 
I don't believe you

 G Bm 
I'm in a parachute

 G Bm 
Falling in deep

 Bm 
Sleep

 G Bm 
Out of control

 G Bm 
Can you feel it?

 G Bm 
Is this the end of the road?
 G Bm 
Falling in deep
 Bm G C 
Lost in a dream

 G 
And the rains begin to shower
 G 
Cover me in blue
 G 
In the wild the watchman's tower
 G 
Your perfect monsoon

 D C G 
Tell my friends I'm gone, it's true
 D C G 
Tell my son I've gone away with you

 G Bm 
I don't believe you
 G Bm 
I'm in a parachute
 G Bm 
Falling in deep
 Bm 
Sleep
 G Bm 
Out of control
 G Bm 
Can you feel it?
 G Bm 
Is this the end of the road?
 G Bm 
Trick up your sleeve
 Bm 
Breathe

 G Bm 
I don't believe
 G Bm 
Is this the end of the sea
 G Bm 
Staring at me?
 Bm 
I could be free
 G C 
In a dream



 C - C - C - C G Bm C 
Lay down by the fire light
 G Bm C 
For all I know it's the last time
 G D C 
Tell my son
 C 
Oh 

 G -  Bm  –  G  -  Bm

After The Scripture chords – Manchester Orchestra

 ------------------------------------------
After the Scripture - Manchester Orchestra
------------------------------------------

: oncenowagain

Tuning: Half-step down



 Em ,  G ,  C ,  Em  x2


 Em G C Em 
After the scripture, We started to pray
               G C Em 
Holdin' our hands up, Waitin' for change
           G C Em 
I hardly knew you, You knew me the same
                G C Em 
So we built a shelter, While we turned the weak away


 Em ,  G ,  C ,  Em  x2


 Em G C Em 
Your mother beside me, Rattlin' her brain
               G C Em 
Makin' an offering, Pacing the pain
             G C Em 
We took a picture, Placed it in frame
             G C Em 
We built a fire, And we turned the cold away


        C G D Em 
And I know it's not what you desire
       C G D Em 
This pain can't crumble, Won't soon retire


 Em ,  G ,  C ,  Em  x2



 D/F# D C G 
Everybody there was trying to hide some great desire
 D/F# D C G 
Put away the positives and let that good girl die
 D/F# D C G 
Everybody's prayers were turned into a gradual sigh
       C G D 
So I paced around the backyard for a while


 Em G C Em 
That was a bee sting, A speck in my eye
            G C Em 
A casual movement, A thief in the night
                G C Em 
Now I can't forget you, Sword in my side
              G C Em 
Candle that burned me, Deliver me light


         C G D Em 
And I know it's not what you desire
        C G D Em 
This pain can't crumble, Won't soon retire


 Em ,  G ,  C ,  Em  x2

What Does The Fox Say chords – Ylvis V3

 , i hope you like it ;D

 AM - C - D Am C 
 Dog goes woof
          G 
Cat goes miauw
          D 
Bird goes tweet
               Am 
And mouse goes squeek

         C 
Cow goes moo
          G 
Frog goes croak
        D Am 
And the elephant goes toot
           C 
Duck say quack
               G 
and fish go bluhub
           D Am 
and the seal goes ow ow ow
                      C G  
But there's one sound that no one knows...
                D 
What does the fox say!

Ringdingdingdingdingdingdingdingding
Geringdingdingdingdingdingdingding
ringringdingdingdingdingdingdingding

What the fox say!

pa pa pa pa pa pa pa pauw
wha pa pa pa pauw
wha pa pa pa pauw

What the fox say!

hati hati hati hoo
hati hati hati hoo
hati hati hati hoo

What the fox say!

Tsjoefsjoefsjoefsjoefsjoefsjoefsjoefesjoef
tjoeftjoeftjoefsjoefsjoefsjoefsjoefesjoefff
Joefsjoefsjoefsjoefsjoefsjoefsjoefesjoef

What the fox say!

Big blue eyes, pointy nose.
chasing mise, and digging holes.
tiny paws, up the hill.
Suddenly you're standing still.

Your fur is red, so beautiful.
Like an angel in diguise.
But if you meet, a friendly horse.
Will you communicate by
Mo-o-o-o-orse
Mo-o-o-o-orse
Mo-o-o-o-orse
How will you speak to that;
Ho-o-o-o-orse
Ho-o-o-o-orse
Ho-o-o-o-orse

What does the fox say!
Ja cha cha cha cha cha chow
Ja cha cha cha cha cha chow
Cha cha cha cha cha chow 

What te fox say!

Fakakakakakakakakow
Fakakakakakakakakow
Fakakakakakakakakow

What the fox say!

 A -hee  A -hee  A -hee
 A -hee  A -hee  A -hee
 A -hee  A -hee  A -hee

What the fox say!

Aoo-oo-oo-oo-oo-oo-oo.
Aoo-oo-oo-oo-oo-oo-oo.

What te fox say!

The secret of the fox.
Ancient mystery.
Somewhere deep in the woods
I know you're hiding
What is your sound?
Will we ever know?
Will always be a mystery.

WHAT DO YOU SAAAAAAAAAAAAAYY!!???
You're my guardian angel!
Hiding in the woods.
What is your sound?

Padadadapompompedom
Padadadapompompedom
Padadadapompompedom

Will we ever know?
Padadadapompompedom
I want to... I want to.. I want to knooww!
Pabadapapapedom!

Paper Tiger chords – Rosi Golan V2

 Capo IV



(Strum once for each chord of Intro):

Intro:

                 G Cadd9                  
You've got the loudest bark, but you've got no bite, 

        G D 
Its a funny sight to see

        G Cadd9         
Like a paper tiger hanging on a string, 

  Cadd9 G D G 
darlin' you don't bother me


Verse 1:


                 Em G Cadd9 
You're like the fold I can never iron out of my shirt

      G Cadd9 G Cadd9 G Cadd9 G D 
Sometimes I wonder if it is worth it taking all that you throw at me


Chorus:


                G Cadd9 G 
You've got the loudest bark, but you've got no bite, 

       Cadd9 G D 
Its a funny sight to see

        G Cadd9 G      
Like a paper tiger hanging on a string, 

         Cadd9 D G 
darlin' you don't bother me


Verse 2:


                 Em G Em 
And when you're told, You're not the brightest star in the sky

          G Cadd9 G Cadd9 G 
You'll knock the others down just to prove that you're brighter

         Am G D 
But you darken when you're shedding light


Chorus:



                 G Cadd9 G                
You've got the loudest bark, but you've got no bite, 

        Cadd9 G D 
It's a funny sight to see

        G Cadd9         
Like a paper tiger hanging on a string, 

         G D G 
darlin' you don't bother me


(Strum once for each chord):

       G Cadd9         
Like a paper tiger hanging on a string, 

 Cadd9 G D G 
darlin' you don't bother me

Tervaskanto solo Tabs by Viikate

 -------------------------------------------------------------------------------
|			    TERVASKANTO - Viikate (2013)                      |
-------------------------------------------------------------------------------
: MrBurd

Tuning: Standard (EADGBe)

e|-----------------8-7-5-----------------------------------------------------|
B|-5--5-6-5---5--5-------8-5-------5-6-5--5-6-5------------------------------|
G|----------7----------------7-5-7--------------7-5-4-4h5-4------------------|
D|----------------------------------------------------------5-5h7------------|
A|---------------------------------------------------------------------------|
E|---------------------------------------------------------------------------|

e|----------------------5-5--7-8-7-5-7-8-5-----------------------------------|
B|------------------5----------------------6-6h8-6-5-6-5---------------------|
G|-----4-5-5--4-5-7--------------------------------------7-7h9---------------|
D|-5-7-----------------------------------------------------------------------|
A|---------------------------------------------------------------------------|
E|---------------------------------------------------------------------------|

e|-13-12-10-13-12-10-13-12-10-13-12-10---------------------------------------|
B|-------------------------------------12-12h13-13-13-15-13-12-13------------|
G|----------------------------------------------------------------14---------|
D|---------------------------------------------------------------------------|
A|---------------------------------------------------------------------------|
E|---------------------------------------------------------------------------|

e|-----5-5/7-5-----5-5h7-7h8p7---------7---12------5~------------------------|
B|---6------------5------------------9---9-------5---------------------------|
G|-7-------------5---------------7-9------------7----------------------------|
D|---------------------------------------------------------------------------|
A|---------------------------------------------------------------------------|
E|---------------------------------------------------------------------------|



************************************

| /   slide up
| \   slide down
| h   hammer-on
| p   pull-off
| ~   vibrato
| +   harmonic
| x   Mute note
| b   Bend
| pb  Pre-bend
| br  Bend release
| pbr Pre-bend release
| brb Bend release bend

************************************

The Answer Tabs by Memphis May Fire

 ----------------------------------------------------------------------------
		             The Answer
                            Memphis May Fire
----------------------------------------------------------------------------

You can just feel the meaning behind this song. Memphis May Fire has really poured their heart and soul into this one. Like usual, the riffs are fun and complex. Enjoy!

Username: dkm817 (same on X box live)
Youtube Cover: https://www.youtube.com/watch?v=Bn4WNGTMUwc
Email: guitardrums@rockfan.com

Guitar 1 Rhythmic (C# G# C# F# A# D#)
Guitar 2 Lead     (C# G# C# F# A# D#)

NOTE: This was exported off of guitar pro.


Guitar 1

       PM PM     PM PM     PM PM        PM PM                               
       S  S  E   S  S  E   S  S  E  E   S  S     H        Q     S  S  S  S  
D#||-----------------------------------------|-----------------------------|
A#||--10-10-10--10-10-10--11-11-11--8--10-10-|--10--------L----14-15-10-10-|
F#||-----------------------------------------|-----------------------------|
C#||-----------------------------------------|-----------------------------|
G#||-----------------------------------------|-----------------------------|
C#||-----------------------------------------|-----------------------------|


                           |--3--|  |--3--|          
   S  S  S  S  S  S  S  S  S  S  S  S  S  S  E   E   
--------------------------13-12-13-12-13-12---------|
--14-14-14-14-14-15-15-15-------------------11--10--|
----------------------------------------------------|
----------------------------------------------------|
----------------------------------------------------|
----------------------------------------------------|


                  PM  PM  PM  PM  PM  PM         
   |--3-| |--3-|  |---3---|   |---3---|          
   S S  S S  S S  E   E   E   E   E   E   E  E   
------------------------------------------------|
--10-9-10-9-10-9-10--10--10--10--10--10--11--8--|
------------------------------------------------|
------------------------------------------------|
------------------------------------------------|
------------------------------------------------|


   PM PM     PM PM     PM PM        PM PM 
   S  S  E   S  S  E   S  S  E  E   S  S  
-----------------------------------------|
--10-10-10--10-10-10--11-11-11--8--10-10-|
-----------------------------------------|
-----------------------------------------|
-----------------------------------------|
-----------------------------------------|


   E   T  T  T  T  E   T  T  T  T  E    E   S  S  S  S  
-------------------------------------------------------|
--10--10-10-10-10-10--10-10-10-10-10b--10--14-15-15-15-|
-------------------------------------------------------|
-------------------------------------------------------|
-------------------------------------------------------|
-------------------------------------------------------|


                           |--3--|  |--3--|          
   S  S  S  S  S  S  S  S  S  S  S  S  S  S  E   E   
--------------------------13-12-13-12-13-12---------|
--14-14-14-14-14-15-15-15-------------------11--10--|
----------------------------------------------------|
----------------------------------------------------|
----------------------------------------------------|
----------------------------------------------------|


                  PM  PM  PM  PM  PM  PM         
   |--3-| |--3-|  |---3---|   |---3---|          
   S S  S S  S S  E   E   E   E   E   E   E  E   
------------------------------------------------|
--10-9-10-9-10-9-10--10--10--10--10--10--11--8--|
------------------------------------------------|
------------------------------------------------|
------------------------------------------------|
------------------------------------------------|


                             PM PM                                  
   S E  S E   S S  S E  S E  S  S