Month: January 2016

Little Girl chords – Johnny Rivers

 Little Girl:Johnny Rivers.
Album - The Rock And Roll Years -
Released on BURNING FIRE Records in 2009.
Single released on COLUMBIA Records
in 1957. (I believe this was his first
record.)

INTRO:  Eb F Ab 

#1.
 Ab 
Come on little girl, well, let's take 

a walk.
              Db Ab 
Yeah, little girl, let's take a walk.
             Eb Ab 
Then on the jaunt, we'll have a talk.

#2.
 Eb Ab 
Hey, little girl, won't you say you're mine?
              Db Ab 
Yeah, little girl, baby, say you're mine?
                  Eb Bbm Eb 
Well, you know I go with you, cause you're 
    Ab 
so fine.

#3.
 Ab 
Hey, little girl, well, let's close the door.
             Db Ab 
Hey, little girl, baby, close the door.
                      Eb Ab 
Well, come on little girl, let's rock some more.


INTERLUDE:  Ab Db Ab Eb Db Ab  (x2)

#4.
 Ab 
Well, now, come on little girl, you're a real 

gone kid.
            Db Ab 
Oh, little girl, you're a real gone kid.
                   Eb Ab 
If you say you're mine, I'm gonna flip my lid.

#5.
 Ab 
Hey, little girl, well, I love you so.
              Db Ab 
Yeah, little girl, you know I love you so.
                            Eb 
Well, now, come on, little girl, I'll never let 
     Ab 
you go.

OUTRO:  Ab Db Ab Eb Db Ab  (Fade.)



A fifties smash from Kraziekhat.

Anywhere But Here Acoustic Tabs – Rise Against Vsion 2

 -------------------------------------------------------------------------------
                             SONG NAME - Band Name
-------------------------------------------------------------------------------
: Demian 
maybeshewillz@mail.ru

Tuning: Half-Step Down

If you want to play this song in such a way that sound like two guitars, but you are alone,
this intro will help you. The main thing - to correctly understand strumming pattern.

Intro:

eb|---------------------------------------------------------------------------|(x3)
Bb|-0-0-00---------0-0-00-4-4-44----------------------------------------------|
Gb|-1-1-11---------2-2-22-2-2-22----------------------------------------------|
Db|-2-2-22-4-4-44--2-2-22-2-2-22----------------------------------------------|
Ab|-2-2-22-2-2-22--0-0-00-0-0-00----------------------------------------------|
Eb|--------0-0-00-------------------------------------------------------------|

eb|---------------------------------------------------------------------------|
Bb|---------------------------------------------------------------------------|
Gb|-4-4-4-4-4/9-9-7-7-5-5-5---------------------------------------------------|
Db|-4-4-4-4-4/9-9-7-7-5-5-5---------------------------------------------------|
Ab|-2-2-2-2-2/7-7-5-5-3-3-3---------------------------------------------------|
Eb|---------------------------------------------------------------------------|

Verse: 

eb|---------------------------------------------------------------------------|
Bb|---------------------------------------------------------------------------|
Gb|--6-------9----------------------------------------------------------------|
Db|--6---7---9---9------------------------------------------------------------|
Ab|--4---7---7---9------------------------------------------------------------|
Eb|------5-------7------------------------------------------------------------|

Brigde:

Destination anywhere but here...

eb|---------------------------------------------------------------------------|
Bb|---------------------------------------------------------------------------|
Gb|---------------------------------------------------------------------------|
Db|-4-4-4-4-4-4-4-4(x)-2(x)----(x - palm mute)--------------------------------|
Ab|-4-4-4-4-4-4-4-4(x)-2(x)---------------------------------------------------|
Eb|-2-2-2-2-2-2-2-2(x)-0(x)---------------------------------------------------|

Chorus:

eb|---------------------------------------------------------------------------|(x3)
Bb|-0-0-00---------0-0-00-4-4-44----------------------------------------------|
Gb|-1-1-11---------2-2-22-2-2-22----------------------------------------------|
Db|-2-2-22-4-4-44--2-2-22-2-2-22----------------------------------------------|
Ab|-2-2-22-2-2-22--0-0-00-0-0-00----------------------------------------------|
Eb|--------0-0-00-------------------------------------------------------------|

eb|---------------------------------------------------------------------------|
Bb|---------------------------------------------------------------------------|
Gb|-4-4-4-4-4-----------------------------------------------------------------|
Db|-4-4-4-4-4-----------------------------------------------------------------|
Ab|-2-2-2-2-2-----------------------------------------------------------------|
Eb|---------------------------------------------------------------------------|

Brigde:

I'm so tired and turned around
And scared...

eb|---------------------------------------------------------------------------|
Bb|---------------------------------------------------------------------------|
Gb|--6-----------4-------(just single notes)----------------------------------|
Db|--6---7---2---4------------------------------------------------------------|
Ab|--4---7---2---2------------------------------------------------------------|
Eb|------5---0----------------------------------------------------------------|

and then chorus again.

Tab fo

Your First And Last Love chords – Johnny Rivers Vsion 2

 Your First And Last Love:Johnny Rivers.
On DEE DEE Records in 1959.

INTRO:  G C Am F  G..C  Am F G 

#1.
 C Am F 
Could this be the first time you've ever been 
    G 
in love?
     C Am F 
And do you think your heart could really know
             G 
the meaning of?
     C Am F G 
Oh, if it is, could it always be your first and 
      C Am F G 
last love? (first and last, first and last love)

#2.
 C Am F G 
Could I be the first one to ever hold your hand?
    C Am F 
To see you just the way you are and really 
      G 
understand?
     C Am F G 
Oh, if I am, could I always be your first and 
      C F C C7 
last love? (first and last love..doh-doh-doh)

CHORUS:
         F Em G F 
Will it always be just you and me, will I be the 
 G C 
only one?
            F Em D 
Will there come a day you will say that it was 
        G 
all in fun? 

#3.
 C Am F 
Some day when we're older, could I take you for 
    G 
my wife?
    C Am F 
Or will there be another love to change our way 
    G 
of life?
        C Am F G 
Please tell me that'll I'll always be your first 
          C F C C7 
and last love. (first and last love..doh-doh-doh)

CHORUS:
         F Em G F 
Will it always be just you and me, will I be the 
 G C 
only one?
            F Em D 
Will there come a day you will say that it was 
        G 
all in fun? (oh-oh-ohhhh!!)

#4.
 C Am F 
Some day when we're older, could I take you for 
    G 
my wife?
    C Am F 
Or will there be another love to change our way 
    G 
of life?
        C Am F G 
Please tell me that'll I'll always be your first 
          C    
and last love. 

OUTRO:
  F C 
(First and last love!!!)



A fifties smash from Kraziekhat.





Florida Kilos intro Tabs – Lana Del Rey

 -------------------------------------------------------------------------------
                             Florida Kilos - Lana Del Rey
-------------------------------------------------------------------------------

Tuning: Standard


  Dm                      C                    G
e|---5--------------------------------------------3--------------------------|
B|------6-----6h8-6-6-------5------5h6p5---5---------3-----3h5-3h5-3---------|
G|---------5--5---5-5--4--5---5----5----5------------4-----4---4---4---------|
D|------------------------------5------------4-5-------5---------------------|
A|-5----------------------3--------------------------------------------------|
E|---------------------------------------------------------------------------|
     
     F
e|------10-----10h12p10------------------------------------------------------|
B|--------10------------10---------------------------------------------------|
G|-7/14-----10-------------10------------------------------------------------|
D|----------------------------12---------------------------------------------|
A|---------------------------------------------------------------------------|
E|---------------------------------------------------------------------------|



"White lines, pretty baby, tattoos..."

   Dm                     C                    G
e|---5--------------------------------------------3--------------------------|
B|------6-----6h8-6-6-------5------5h6p5---5--------3------3h5-3h5-3---------|
G|---------5--5---5-5--4--5---5----5----5-----------4------4---4---4---------|
D|------------------------------5------------4-5------5----------------------|
A|-5----------------------3--------------------------------------------------|
E|---------------------------------------------------------------------------|
     
      F
e|---------------------------------------------------------------------------|
B|------1------1h3-1h3-1-----------------------------------------------------|
G|--------2----2---2---2-----------------------------------------------------|
D|--5\3-----3------------3---------------------------------------------------|
A|---------------------------------------------------------------------------|
E|---------------------------------------------------------------------------|


Basically just alternate these two until the chorus.

************************************

| /   slide up
| \   slide down
| h   hammer-on
| p   pull-off
| ~   vibrato
| +   harmonic
| x   Mute note
| b   Bend
| pb  Pre-bend
| br  Bend release
| pbr Pre-bend release
| brb Bend release bend

************************************

Shes Every Woman chords – Garth Brooks Vsion 2

 She's Every Woman
by Garth Brooks
Key: E
Standard tuning
No capo

Intro

Verse 1
                E A 
She's sun and rain, she's fire and ice
            B C#m 
A little crazy but it's nice
           A B 
And when she gets mad, you best leave her alone
                E B A 
‘Cause she’ll rage just like a river
              B C#m    
Then she’ll beg you to forgive her
         A B E 
She’s every woman that I’ve ever known


Verse 2 
               E A 
She's so New York and then L.A.
             B C#m 
And every town along the way
         E B 
She's every place that I've never been
              E A 
She's makin love on rainy nights
           B C#m 
She's a stroll through Christmas lights
            A B E 
And she's everything I want to do again

Chorus
 A E 
  And it needs no explanation
 A E 
  'Cause it all makes perfect sense
 B A 
  When it comes down to temptation
             A B E B 
  She's on both sides of the fence

Vocal Silence- Just strumming

Chorus
 A E 
  No it needs no explanation
 A E 
  'Cause it all makes perfect sense
 B A 
  When it comes down to temptation
             A B E B 
  She's on both sides of the fence



Vocal Silence- Just strumming

 E  -  A  -  B  -  C#m  -  E  -  B  
(The first part of the chorus)

Verse 3
           E A 
She's anything but typical
           B C#m 
She's so unpredictable
         E B 
Oh but even at her worst it ain't that bad
           E A 
She's as real as real can be
            B C#m 
And she's every fantasy
             E C#m 
Lord she's every lover that I've ever had
             A B E 
And she's every lover that I've never had

Hope this helped- All input and criticism is welcome!

Lady In The Blue Mercedes chords – Johnny Duncan

 G 
It was a windy day down Malibu way
 
                        D7 
The California sun was shining 


I was in no hurry sipping Bloody Mary’s

                          G 
And I fell asleep by the ocean 



Then a lovely lady in a blue Mercedes
 
                G7 C 
Parked her car down by the sea 

                               G 
She stepped into the sand and took me by the hand 

        D7 G 
And we traveled away in my dreams 


              C 
And we drank Pina Coladas down in Puerto Rico

                       G 
We tangoed in Montego Bay
 
    D7 
We sipped Champaign in the summer rain
 
                     G 
On a warm Caribbean day 


         C 
I put a pretty flower in her long black hair

                         G 
Along the sands of Waikiki
 
     D7 
And I left my heart in San Francisco

                              G 
Where she first made love to me

 

Then I awoke to the sound of the tide coming in
 
                        D7 
And the sun was almost gone 


I didn't want to wake from my beautiful dream 

                         G 
But I had to take it on home
 


Then somewhere in the evening came a heavenly voice 

                                  C 
Saying thank you for a wonderful day 

                                G 
Then the beautiful lady in the blue Mercedes 

        D7 G 
Blew a kiss and drove away


              C 
And we drank Pina Coladas down in Puerto Rico

                       G 
We tangoed in Montego Bay 

    D7 
We sipped Champaign in the summer rain
 
                     G 
On a warm Caribbean day


                C 
We stuffed our pockets full of pretty shells

                                G 
While the trade winds blew all night

    D7 
We bought mangos and bananas in the market place

                           G 
And made love by the fire light


              C 
And we drank Pina Coladas down in Puerto Rico

                       G 
We tangoed in Montego Bay
 
    D7 
We sipped Champaign in the summer rain 

                     G 
On a warm Caribbean day

Back To Back chords – Jeanne Pruett

 C F C 
We should be happy just the way we are

                                 F C G7 
We got a brand new house with a circle drive and a fancy car

              C F C 
But furs and diamonds and a Cadillac 
 
                    F C G7 C 
Don’t mean a thing when you’re sleeping back to back


             F C 
You look at your wall I stare at mine

                     F C G7 
But we never really seem to say what’s on our mind

                      C F C 
We don’t talk things over we ignore the facts

                          F C G7 C 
That our love can’t live when it’s sleeping back to back


                               F C 
When I fell in love with you  you didn’t have a dime

                         F C G7 
But we spent our nights making love not marking time

                    C F C 
And I’d trade this mansion for a run down shack

                     F C G7 C 
And a man who don’t believe in sleeping back to back


             F C 
You look at your wall I stare at mine

                     F C G7 
But we never really seem to say what’s on our mind

                      C F C 
We don’t talk things over we ignore the facts

                          F C G7 C 
That our love can’t live when it’s sleeping back to back

Mandrake chords – Tex Morton

 C F 
I've told you of Aristocrat and good old Rocky Ned

       G7 C 
Their names will be remembered long after they are dead

                                       F C 
They've thrown the best of riders the greatest of all time

     F C G7 C 
But now I'll tell you all about this new outlaw of mine

 
                                   F 
We used to call him Slippery when he came with the show

       G7 C 
But I changed his name to Mandrake there's no trick he don't know

                                   F C 
He tries a new one every night he never bucks the same

    F C G7 C 
Mandrake is a wizard so that's how he got his name

 
                       F 
Screw down the saddle make it good and tight

 C G7 
Back from the ropes please ask him is he right

 C F 
Pick up you mate lads he had a nasty fall

 C G7 C 
They're all the same to Mandrake champions and all

 
                               F 
Now all you local riders come here and gather 'round

      G7 C 
Stay on his back ten seconds and I'll pay a hundred pounds

                                F C 
The champion of Queensland got on to ride him round

    F C G7 C 
He rode him just two seconds one up one coming down

 
                                    F 
A fella came in the other night to show what he could do

    G7 C 
He thought that he'd be clever so he painted his pants with glue

                              F C 
Mandrake threw him easily he said huh I don't mind

        F C G7 C 
I says old chap take a look at yourself you've left your pants behind


                       F 
Screw down the saddle make it good and tight

 C G7 
Back from the ropes please ask him is he right

 C F 
Pick up you mate lads he had a nasty fall

 C G7 C 
They're all the same to Mandrake champions and all


                                F 
A new chum went up to the boys just the other night

 G7 C 
Mandrake got mixed up in the ropes and gave him a heck of a fright

                                     F C 
What'll I do if he skips out of the ring I heard him say

         F C G7 C 
Why you jump into the ring then pal and you'll be quiet okay

 
                             F 
I have a little saying it's one you ought to know

      G7 C 
It's always been my motto of my traveling Rodeo

                             F C 
There never was a rider who never could be thrown

           F C G7 C 
And there never was a bronco that never could be rode


                       F 
Screw down the saddle make it good and tight

 C G7 
Back from the ropes please ask him is he right

 C F 
Pick up you mate lads he had a nasty fall

 C G7 C 
They're all the same to Mandrake champions and all

Way Downtown chords – Doc Watson

 F C 
Way downtown just fooling around

 G7 C 
They took me to the jail

 F C 
Oh me and it's oh my

 G7 C 
No one to go my bail


    F C 
It was late last night when Willie came home

 G7 C 
I heard him a-rapping on the door

        F C 
He's a slipping and a sliding with them new shoes on

 G7 C 
Momma said Willie don't you rap no more


 F C 
Way downtown just fooling around

 G7 C 
They took me to the jail

 F C 
Oh me and it's oh my

 G7 C 
No one to go my bail

 
   F C 
I wish I was over at my sweet Sally's house

 G7 C 
Sitting in that big armed chair

 F C 
One arm around this old guitar

 G7 C 
And the other one around my dear


 F C 
Way downtown just fooling around

 G7 C 
They took me to the jail

 F C 
Oh me and it's oh my

 G7 C 
No one to go my bail


 F C 
Now it’s one old shirt is bout all that I got

 G7 C 
And a dollar is all that I crave

   F C 
I brought nothing with me into this old world

 G7 C 
Ain't gonna take nothing to my grave


 F C 
Way downtown just fooling around

 G7 C 
They took me to the jail

 F C 
Oh me and it's oh my

 G7 C 
No one to go my bail

Fight To Survive chords – Stan Bush

 Fight To Survive by Stan Bush
From the MGM film "Bloodsport"

Verse 1:

 C#m 
My body's ready, my heart's on fire
 F# 
I'm gonna push it, over the wire
 C#m 
Perfect timing, tight as a drum
 F# 
The final battle's already won

Chorus:

 F#m G#m 
I'm taking hold of every moment
 A G#m 
Given strength, by the breath of life
 F#m G#m 
I'm gonna stake my claim
         C#m 
I fight to survive

C#m (Hold)
KUMITE! KUMITE!
KUMITE! KUMITE!
KUMITE! KUMITE!
KUMITE! KUMITE!

Verse 2:

 C#m 
I've worked hard every night and day
 F# 
So I'm prepared to make my way
 C#m 
Mind and body are the perfect team
 F# 
Now's my chance to live my dream

Chorus:

 F#m G#m 
I'm taking hold of every moment
 A G#m 
Given strength, by the breath of life
 F#m G#m 
I'm gonna stake my claim
         C#m 
I fight to survive

 C#m 
Kumite, kumite
Kumite, kumite
Kumite, kumite
Kumite, kumite
Kumite, kumite
Kumite, kumite
Kumite, kumite
Kumite, kumite
Kumite, kumite
Kumite, kumite
Kumite, kumite
Kumite, kumite
Kumite, kumite

Read more: Stan Bush - Fight To Survive (from The Movie Bloodsport) Lyrics | MetroLyrics 

고엽 Dead Leaves intro Tabs – Bangtan Boys

 -------------------------------------------------------------------------------
                        고엽 (Dead Leaves) - BTS
-------------------------------------------------------------------------------
: Ryley
Tuning: Standard

 and it might not be perfect but it sounds close enough
to me so I hope you like it. Knock yourselves out.

e|---------------------------------------------------------------------------|
B|---------------------------------------------------------------------------|
G|-8-------------------8-----------------------------------------------------|
D|---11-8--------8-11----11-8-------8----------------------------------------|
A|--------11--11--------------11-11------------------------------------------|
E|---------------------------------------------------------------------------| (x2)

e|---------------------------------------------------------------------------|
B|---------------------------------------------------------------------------|
G|---------------------------------------------------------------------------|
D|-1---------------1---------------------------------------------------------|
A|---4-1------1-4----4-1------1----------------------------------------------|
E|-------4--4------------4--4------------------------------------------------| (x2)


************************************

| /   slide up
| \   slide down
| h   hammer-on
| p   pull-off
| ~   vibrato
| +   harmonic
| x   Mute note
| b   Bend
| pb  Pre-bend
| br  Bend release
| pbr Pre-bend release
| brb Bend release bend

************************************

Im An Animal Tabs – KISS Vsion 2

 ---------------------------------------------------------------------------------------------------------------
                                             I'M AN ANIMAL - KISS
---------------------------------------------------------------------------------------------------------------

Tuning: Half-Step Down (D# G# C# F# A# D#)

Stuff To Know:
~ - vibrato
b - bend
p - pull off
PM - palm mute where the dots are
/ - slide up
\ - slide down

If you feel there's something wrong with the tab just hit me up in comments below :)
Good Luck!

Intro/Chorus
eb|---------------------------------------------------------------------|
Bb|---------------------------------------------------------------------|
Gb|----------7-8-9~--------12--11--10-----------------------------------|
Db|---5-6-7--7-8-9~----2----x---x---x----2------------------------------|
Ab|---5-6-7--5-6-7~----2---10~--9~--8~---2---7-5-7-5--------------------|
Eb|---3-4-5------------0-----------------0-----------7\5-3-3-0-3-5~-----|

eb|-------------------------------------------|
Bb|-------------------------------------------|
Gb|-------12--11--12--------------------------|
Db|---2----x---x---x----2-----------5-6-7-----|
Ab|---2---10~--9~--8~---2-----------5-6-7-----|
Eb|---0-----------------0--/slide\--3-4-5-----| (/slide\ - you can do 3/14\3)

eb|----------------------------------------------------|
Bb|----------------------------------------------------|
Gb|-------12--11--10-----------------------------------|
Db|---2----x---x---x----2------------------------------|
Ab|---2---10~--9~--8~---2---7-5-7-5--------------------|
Eb|---0-----------------0-----------7\5-3-3-0-3-5~-----|

eb|--------------------------------------|
Bb|--------------------------------------|
Gb|-------12--11--10-----------7-8-9-----|
Db|---2----x---x---x----5-6-7--7-8-9-----|
Ab|---2---10~--9~--8~---5-6-7--5-6-7-----|
Eb|---0-----------------3-4-5------------|

Verse [x2]
PM   .....          .....         .....
eb|----------------------------------------------------------|
Bb|----------------------------------------------------------|
Gb|------------------------7/9~------------------------------|
Db|--2-2-2----------2-2-2--7/9~---2-2-2---------5--4/5\4-----|
Ab|--2-2-2--0-1~----2-2-2--5/7~---2-2-2--0-1~---5--4/5\4-----|
Eb|--0-0-0----------0-0-0---------0-0-0---------3--2/3\2-----|

PM   .....          .....         .....
eb|--------------------------------------------------------|
Bb|--------------------------------------------------------|
Gb|------------------------7/9~----------------------------|
Db|--2-2-2----------2-2-2--7/9~---2-2-2---------5--5/7-----|
Ab|--2-2-2--0-1~----2-2-2--5/7~---2-2-2--0-1~---5--5/7-----|
Eb|--0-0-0----------0-0-0---------0-0-0---------3--3/5-----| [Repeat Verse x1 more time]

Bridge
eb|----------------------------------------------------------------------------------------|
Bb|----------------------------------------------------------------------------------------|
Gb|----------------------------------------------------------------------------------------|
Db|---9-9-9-9-9-9-9-9---7-7-7-7-7-7-7-7---10-10-10-10-10-10-10-10---12-12-12-12-12-12\-----|
Ab|---9-9-9-9-9-9-9-9---7-7-7-7-7-7-7-7---10-10-10-10-10-10-10-10---12-12-12-12-12-12\-----|
Eb|---7-7-7-7-7-7-7-7---5-5-5-5-5-5-5-5---8--8--8--8--8--8--8--8----10-10-10-10-10-10\-----|

Chorus
eb|----------------------------------------------------|
Bb|----------------------------------------------------|
Gb|-------12--11--10-----------------------------------|
Db|---2----x---x---x----2------------------------------|
Ab|---2---10~--9~--8~---2---7-5-7-5--------------------|
Eb|---0-----------------0-----------7\5-3-3-0-3-5~-----|

eb|-------------------------------------------|
Bb|-------------------------------------------|
Gb|-------12--11--12--------------------------|
Db|---2----x---x---x----2-----------5-6-7-----|
Ab|---2---10~--9~--8~---2-----------5-6-7-----|
Eb|---0-----------------0--/slide\--3-4-5-----|

Kumbaya Tabs – Misc Traditional Vsion 3

 -------------------------------------------------------------------------------
                             KUMBAYA - Misc Traditional
-------------------------------------------------------------------------------
: Luke Schwartz
 maofsteele2500

Let me know if there are any problems with this BEGINNGER TAB. It may be a little too easy for the
advanced guitar player. Enjoy!

Tuning:E A D G B e (Standard)

e|-----------------------0---0-----------------------------------------------|
B|-------0---3---3---3-----------3-------0---3---3---3---1---0---------------|
G|---0-------------------------------0---------------------------2-----------|
D|---------------------------------------------------------------------------|
A|-----------2-----------3-------2-----------2-----------0-------------------|
E|---3-------------------------------3---------------------------2-----------|

e|-----------------------0---0-----------------------------------------------|
B|-------0---3---3---3-----------3---1---0-----------------------------------|
G|---0---------------------------------------0---2---2---0-------------------|
D|---------------------------------------------------------------------------|
A|-----------2-----------3-------2---0-----------0---------------------------|
E|---3---------------------------------------3-----------3-------------------|

END

************************************

| /   slide up
| \   slide down
| h   hammer-on
| p   pull-off
| ~   vibrato
| +   harmonic
| x   Mute note
| b   Bend
| pb  Pre-bend
| br  Bend release
| pbr Pre-bend release
| brb Bend release bend

************************************

Our Day Will Come Tabs – Amy Winehouse

 -------------------------------------------------------------------------------
                        OUR DAY WILL COME - Amy Winehouse
-------------------------------------------------------------------------------
: Alexa

b = bend  h = hammer on  p = pull off  / = slide up

Tuning: Standard

Same key as Johnny Cosmic's chord version; half a step up from Amy's recording

The bends, hammer-ons, and pull-offs obviously aren't necessary. It's a pretty easy tab so it's fun 
to mess around with. Make it your own. Enjoy!


e|-------------------------2-4-2-2-----------------------------2-2h4-2-2-----|
B|--5-0-2-2b3b2p0----0h2-5--------------5-0-2-2b3b2p0----0h2-5---------------|
G|---------------------------------------------------------------------------|
D|---------------------------------------------------------------------------|
A|---------------------------------------------------------------------------|
E|---------------------------------------------------------------------------|
  
e|--/7---4-5-7-5h7p5-4---/4--0-0--2-3--0-0----2-0----------------------------|
B|-----7---------------7--------------------------1-0------------------------|
G|---------------------------------------------------------------------------|
D|---------------------------------------------------------------------------|
A|---------------------------------------------------------------------------|
E|---------------------------------------------------------------------------|

e|-------------------------2-4-2-2-----------------------------2-2h4-2-2-----|
B|--5-0-2-2b3b2p0----0h2-5--------------5-0-2-2b3b2p0----0h2-5---------------|
G|---------------------------------------------------------------------------|
D|---------------------------------------------------------------------------|
A|---------------------------------------------------------------------------|
E|---------------------------------------------------------------------------|

e|---/7---4-5-7-5h7p5-4---/4--0-0--2-3--2-0-----4~~~-------------------------|
B|------7---------------7--------------------0-------4--4/5~~~~--------------|
G|---------------------------------------------------------------------------|
D|---------------------------------------------------------------------------|
A|---------------------------------------------------------------------------|
E|---------------------------------------------------------------------------|

18 Years Later Tabs – Driftless Pony Club

 -------------------------------------------------------------------------------
                             18 Years Later - Driftless Pony Club
-------------------------------------------------------------------------------
: Connor

Tuning: E Standard

Intro

Guitar 1
PM* * * * * * *  * * * * * * * *  * * * * * * *    * * * * * * * *
e-----------------|----------------|----------------|----------------|--
B-----------------|----------------|----------------|----------------|--
G-----------------|----------------|--------------9-|----------------|--
D-4-4-4-4-4-4-4-2-|2-2-2-2-2-2-2-2-|0-0-0-0-0-0-0---|0-0-0-0-0-0-0-0-|--x4
A-0-0-0-0-0-0-0-0-|0-0-0-0-0-0-0-0-|0-0-0-0-0-0-0---|0-0-0-0-0-0-0-0-|--
E-----------------|----------------|----------------|----------------|--

Guitar 2 (Enter on 2nd repeat)
      Let Ring~~~~~~~~~~
e------------------|--
B------------------|--
G------------------|--
D-2/--11-----------|--x3
A------------------|--
E------------------|--

First Chorus

Guitar 1

e-----------------|----------------|----------------|----------------|--
B---------------5-|--5-5---5-5-5---|----------------|----------------|--
G-2---2---2-2-2---|--x-x---x-x-x-4-|/-6-6---6-6-6-4-|\-2-2---2-2-2-2-|--
D-x---x---x-x-x-x-|--x-x---x-x-x-x-|--x-x---x-x-x-x-|--x-x---x-x-x-x-|--x2
A-0---0---0-0-0-0-|--0-0---0-0-0-0-|/-0-0---0-0-0-0-|\-0-0---0-0-0-0-|--
E-----------------|----------------|----------------|----------------|--

Guitar 2

e-----------------|----------------|-------------------|----------------|--
B-----------------|----------------|-------------------|----------------|--
G-----------------|----------------|-------------------|----------------|--
D-7---7---7-7-7-4-|--4-4---4-4-4-9-|/11-11-11-11-11--9-|--7-7---7-7-7-7-|--x2
A-x---x---x-x-x-x-|--x-x---x-x-x-x-|--x--x--x--x--x--x-|--x-x---x-x-x-x-|--
E-5---5---5-5-5-5-|--5-5---5-5-5-7-|/-9--9--9--9--9--7-|\-5-5---5-5-5-5-|--

Verse

Guitar 1
PM* * * * * * *  * * * * * * * *  * * * * * * *    * * * * * * * *
e-----------------|----------------|----------------|----------------|--
B-----------------|----------------|----------------|----------------|--
G-----------------|----------------|--------------9-|----------------|--
D-4-4-4-4-4-4-4-2-|2-2-2-2-2-2-2-2-|0-0-0-0-0-0-0---|0-0-0-0-0-0-0-0-|--x4
A-0-0-0-0-0-0-0-0-|0-0-0-0-0-0-0-0-|0-0-0-0-0-0-0---|0-0-0-0-0-0-0-0-|--
E-----------------|----------------|----------------|----------------|--


Guitar 2
Lightly PM'ed
e-----------------|----------------|--
B-----------------|----------------|--
G-----------------|----------------|--
D-11---11---7-----|6-----6-----6---|--x8
A-----------------|--------7-7-----|--
E-----------------|----------------|--

2nd Chorus

Guitar 1

e-----------------|----------------|----------------|----------------|--
B---------------5-|--5-5---5-5-5---|----------------|----------------|--
G-2---2---2-2-2---|--x-x---x-x-x-4-|/-6-6---6-6-6-4-|\-2-2---2-2-2-2-|--
D-x---x---x-x-x-x-|--x-x---x-x-x-x-|--x-x---x-x-x-x-|--x-x---x-x-x-x-|--x2
A-0---0---0-0-0-0-|--0-0---0-0-0-0-|/-0-0---0-0-0-0-|\-0-0---0-0-0-0-|--
E-----------------|----------------|----------------|----------------|--

Guitar 2

e-----------------|----------------|-------------------|----------------|--
B-----------------|----------------|-------------------|----------------|--
G-----------------|----------------|-------------------|----------------|--
D-7---7---7-7-7-4-|--4-4---4-4-4-9-|/11-11-11-11-11--9-|--7-7---7-7-7-7-|--x2
A-x---x---x-x-x-x-|--x-x---x-x-x-x-|--x--x--x--x--x--x-|--x-x---x-x-x-x-|--
E-5---5---5-5-5-5-|--5-5---5-5-5-7-|/-9--9--9--9--9--7-|\-5-5---5-5-5-5-|--

Post Chorus

Guitar 1

e-----------------|----------------|----------------|----------------|--
B-----------------|----------------|----------------|----------------|--
G-----------------|----------------|---7---6--------|----7---6-------|--
D-7-7-7-7-7-7-7---|--7/-9\-7-4-4-7-|--7--------7-7--|---7--------7---|--x4
A-x-x-x-x-x-x-x---|----------------|--

Weak When Ur Around Tabs – Blackbear

 -------------------------------------------------------------------------------
                             Weak When Ur Around - Blackbear
-------------------------------------------------------------------------------
: Natalie 

Tuning:
  G
e|----------------3-3---------------2-2--------------------------------------| 
B|----3-----------3-3------3--------3-3--------------------------------------|
G|---------------------------------------------------------------------------|
D|------------0--------------------------------------------------------------|
A|--2----2--------------2----2---4-------------------------------------------|
E|---------------------------------------------------------------------------| x2

e|---------------------------------------------------------------------------|
B|------0----0----0----0--2--------------------------------------------------|
G|-----------------------------------------3----3----3----3----3-------------|
D|---------------------------------------------------------------------------|
A|---------------------------------------------------------------------------|
E|---3----3----3----3----------------2-----2----2----2----2------------------|

So that's pretty much the entire song, it just repeats over and over again. 
At the end of the song, just slide up that last note.
Any suggestions would be appreciated,just leave them in the comment, i know it's not perfect.




Zero Pharaoh Tabs – Everything Everything Vsion 1

 Everything Everything 
Zero Pharaoh
 Damien mee


intro/verse
transcribed for guitar
--------------------------------------------------------------------------------------------------
--------------------------------------------------------------------------------------------------
--------------------------------------------------------------------------------------------------
--2--2--2--2--2--2--2--2--4--4--4--4--4--4--4--4--5--5--5--5--5--5--5--5--3--3--3--3--0--0--0--0--
---3--3--3--3--3--3--3-----5--5--5--5--5--5--5--5--3--3--3--3--3--3--3--3--3--3--3--3--3--3--3--3-
--------------------------------------------------------------------------------------------------

bridge
----------------17-15--------------------------------------------------
--------15-17~--------17-15------------17---------17---17~---15---15~--
-----14---------------------14~-----14---14~---------------------------
--17-----------------------------17-------------15---15----14---14-----
-----------------------------------------------------------------------
-----------------------------------------------------------------------

second time
----------------17-15-14-----------------------------------------------
--------15-17~----------15------------17---------17---17~---15---15~---
-----14---------------------14~-----14---14~---------------------------
--17-----------------------------17------------15---15----14---14------
-----------------------------------------------------------------------
-----------------------------------------------------------------------

second guitar
--------------------------------------------------------------
--------------------------------------------------------------
--------------------------------------------------------------
--12p10p7-12p10p7-12p10p7-12p10p7-12p10p7-12p10p7-12p10p7-12--
--------------------------------------------------------------
--------------------------------------------------------------

--------------------------------------------------------------
--------------------------------------------------------------
--------------------------------------------------------------
--------------------------------------------------------------
--12p10p7-12p10p7-12p10p7-12p10p7-12p10p7-12p10p7-12p10p7-12--
--------------------------------------------------------------


second verse - guitar starts after "tell me there's a way to cheat death"
------------------------------|----------------------------------------------------------
------------------------------|----------------------------------------------------------
-----------------------5-7----|------------------------------4-4------------------5-7---- repeat this section
--7-7--5-7-7-5--7-7--5-----5--|--7-7--5-7-7-5--7-7--5-7-7-5-------5-7-7-5--7-7--5-----5--
------------------------------|----------------------------------------------------------
------------------------------|----------------------------------------------------------


chorus

-----------------------------------------------------------------------------------
--12-10----12--10----12--10-----12--10----12--10----12--10----12--10----12--10----
--------12--------12--------12---------12--------13--------13--------13--------13--
-----------------------------------------------------------------------------------
-----------------------------------------------------------------------------------
-----------------------------------------------------------------------------------

-----------------------------------------------------------------------------------
--14--12----14--12----14--12---14--12----14--12----14--12----13--12----13--12------
--------14--------14--------14-------14--------14--------14--------14--------14----
-----------------------------------------------------------------------------------
-----------------------------------------------------------------------------------
-----------------------------------------------------------------------------

Sandrevan Lullaby-Lifestyles Tabs – Rodriguez

 -------------------------------------------------------------------------------
Title: Sandrevan Lullaby - Lifestyles   Artist: Rodriguez
 Coming from Reality (After the Fact)
: Andrew Penney

'Sandrevan Lullaby' is scored pretty much how Rodriguez played it on 'Coming
from Reality' ('After the Fact') but the picking patterns can be varied. The
chords for 'Lifestyles' are not exactly as he plays them, particularly for the
chorus, but are chosen to reflect the melody. Barre chords up the neck are used
in the chorus instead of more basic chords to give The notes you might need if
you want to finger pick instead of strum. The strumming is also simplified and
should be supplemented with additional up/down strums to suit the lyrics.

Listen to the Guitar Pro version to see how it sounds as scored here.

Nylon guitar, Standard tuning, Tempo = Sandrevan Lullaby:72,  Lifestyles:148
-------------------------------------------------------------------------------

Tab Legend
----------
h - hammer on/pull off
\ - slide down to next note
^ - strum down
V - pick stroke up
T - tempo
o - Repeated Section
o
% - Segno
@ - Coda


   Sandrevan Lullaby  T=72, gently
                                                             
E ||--------12-------12---------|--12-------12-------12------|
B ||-----------10-------10------|-----10----------------10---|
G ||o----11----------------11---|--------11-------11---------|
D ||o-0-----------12------------|--------------12------------|
A ||----------------------------|--12------------------------|
E ||----------------------------|----------------------------|

                                                      (2x)
--------10-------10---------|--9--------9--------9-------||
-----------8--------8-------|-----8--------8--------8----||
-----9--------9--------9----|--------9--------9---------o||
----------------------------|---------------------------o||
--7-------------------------|--0-------------------------||
----------------------------|----------------------------||

                                                          
                                                          
||--------3--------3----------|--------0--------3--0-------|
||-----3-----3--------3-------|-----2-----2-----------2----|
||--------------4--------4----|----------------------------|
||----------------------------|--------------2-------------|
||--2-------------------------|--0-------------------------|
||----------------------------|----------------------------|

                                                          
--------3--------3----------|--------2--------2----------|
-----3-----3--------3-------|-----------2--------2-------|
--------------4--------4----|-----2--------2--------2----|
----------------------------|----------------------------|
--2-------------------------|--0-------------------------|
----------------------------|----------------------------|

                              T=70     T=50     T=30
--------0-----------3-------|-----------3--2-----0-------||
-----0-----0-----3-----3----|--------2-------------------||
----------------------------|-----2----------------------||
--------------0-------------|----------------------------||
----------------------------|--0-------------------------||
--0-------------------------|----------------------------||

  T=72
||--------1--------1----------|--------1--------1----------|
||-----------3--------3-------|-----------3--------3-------|
||-----2--------2--------2----|-----2--------2--------2----|
||--0-------------------------|----------------------------|
||----------------------------|----------------------------|
||----------------------------|--1-------------------------|

                                                          
--------1--------1----------|--------1--------1----------|
-----------3--------3-------|-----------3--------3-------|
-----2--------2--------2----|-----2--------2--------2----|
----------------------------|

Dr Jones intro Tabs – Cigar

 -------------------------------------------------------------------------------
                             Dr. Jones - Cigar
-------------------------------------------------------------------------------
: benlands3
 benlands3

Tuning: standard

verse (play 6 times)
e|---------------------------------------------------------------------------|
B|---------------------------------------------------------------------------|
G|---------------------------------------------------------------------------|
D|----------------------------------------7/9--------------------------------|
A|--7/9-9-9-9--7/9-9-9-9--7/9-9-9-9--7/9--5/7--------------------------------|
E|--5/7-7-7-7--5/7-7-7-7--5/7-7-7-7--5/7-------------------------------------|

Chorus (play twice)
e|---------------------------------------------------------------------------|
B|---------------------------------------------------------------------------|
G|---------------------------------------------------------------------------|
D|---------------------------------------------------------------------------|
A|--9-9-9-9--5-5-5-5--2-2-2-2--7--7-7----------------------------------------|
E|--7-7-7-7--3-3-3-3--0-0-0-0--5--5-5----------------------------------------|

************************************

| /   slide up
| \   slide down
| h   hammer-on
| p   pull-off
| ~   vibrato
| +   harmonic
| x   Mute note
| b   Bend
| pb  Pre-bend
| br  Bend release
| pbr Pre-bend release
| brb Bend release bend

************************************

Way Down We Go Tabs – Kaleo

 -------------------------------------------------------------------------------
                             Way Down We Go - Kaleo
-------------------------------------------------------------------------------
: Oli

Tuning: Standard


Intro
e|-6---4---2-6-6-|
B|-6---4---2-7-6-|
G|-6---5---3-8-6-|
D|-8---6---4-8-8-|
A|-8---6---4-6-8-|
E|-6---4---2---6-|

Verse
e|-6-6-xx---2x2x---6---6--6-6-6-6-6---|
B|-6-6-xx---2x2x---7---7--7-7-7-7-7---|
G|-6-6-xx---3x3x---8---8--8-8-8-8-8---|
D|-8-8-xx---4x4x---8---8--8-8-8-8-8---|
A|-8-8-xx---4x4x---6---6--6-6-6-6-6---|
E|-6-6-xx---2x2x----------------------|

Solo
e|-------------------------------------------------------------------------------------------------|
B|-------------------------------------------------------------------------------------------------|
G|---------6-----8b10br8-6-8b10br8-6----------6b-----------8b10br8-6-8b10br8-----------8b108p6-----|
D|-----6h8---8-----------------------8-6-8-------8-6-6-----------------------------------------8p6-|
A|-6h8---------------------------------------------------------------------------------------------|
E|-------------------------------------------------------------------------------------------------|

e|-------------6--------------------------------------------------------------|
B|-----------6---9------------------------------------------------------------|
G|----8b10br8-----------------------------------------------------------------|
D|----------------------------------------------------------------------------|
A|----------------------------------------------------------------------------|
E|----------------------------------------------------------------------------|




| h   hammer-on
| p   pull-off
| x   Mute note
| b   Bend

| br  Bend release
| pbr Pre-bend release
| brb Bend release bend