[Verse 1]
F          G                Am
Taste the poison from your lips
 F           G               Am
Lately, we're as good as gone
F        G           Am
Oh, our love is drunken in
 F       G         Am
Singing me my favorite song

[Pre-Chorus]
Em       F
Me and you
         Em        F
We were made to break
   Em            F
I know that's true
          Em       F
But it's much too late

[Chorus]
   F       G       Am      C       F       G       Am
e|-------------------------------3--------------------------------|
B|-------------0-------1-------1---------------0-------1---1-1-1-0|
G|-----2-----0---0---2---2---2---------2-----0---0---2---2--------|
D|---3---3---------------------------3---3------------------------|
A|-----------------0-------3-----------------------0--------------|
E|-1-------3-----------------------1-------3----------------------|

   F       G       Am      C       F       G       Am
e|-------------------------------3--------------------------------|
B|-------------0-------1-------1---------------0-------1----------|
G|-----2-----0---0---2---2---2---------2-----0---0---2------------|
D|---3---3---------------------------3---3------------------------|
A|-----------------0-------3-----------------------0--------------|
E|-1-------3-----------------------1-------3----------------------|

F        G                  Am
 You're perfectly wrong for me
            C                    F
And that's why it's so hard to leave
              G                  Am    F
Yeah, you're perfectly wrong for me
        G                  Am
You're perfectly wrong for me
          C                     F
All the stars in the sky could see
            G                  Am
Why you're perfectly wrong for me

[Verse 2]
F         G           Am
Oh, you know how much it hurts
F      G                Am
Every time you say you hate me
                F      G                 Am
But when we're making love, you make it worth it
         F            G              Am
I can't believe the places that you take me

[Pre-Chorus]
Em        F
There's no use
         Em       F
We were made to break
   Em        F
I know the truth
          Em         F
And it's much too late

[Chorus]
F        G                  Am
 You're perfectly wrong for me
            C                    F
And that's why it's so hard to leave
              G                  Am    F
Yeah, you're perfectly wrong for me
        G                  Am
You're perfectly wrong for me
          C                     F
All the stars in the sky could see
            G                  Am
Why you're perfectly wrong for me

[Bridge]
   F       G       Am
Oh, and why can't I quit
           C
When you break my heart open
          F         G       Am
I need you more than I know
Oh
     F     G       Am
And I can't resist
           C               F
When you're up against my skin
       G              Am
I never want to let you go

[Chorus]
F         G                  Am
  You're perfectly wrong for me
            C                   F
And that's why it's so hard for me
              G                  Am   F
Yeah, you're perfectly wrong for me, mhm
              G                  Am
Yeah, you're perfectly wrong for me
               C                  F
Hate that you know that I won't leave
              G                  Am   F
Yeah, you're perfectly wrong for me, oh
              G                  Am
Yeah, you're perfectly wrong for me
            C                   F
And that's why it's so hard for me
              G                  Am      F
Yeah, you're perfectly wrong for me, yeah
            G                  Am
Oh, you're perfectly wrong for me
               C                  F
Hate that you know that I won't leave
              G                  Am   F
Yeah, you're perfectly wrong for me
              G                  Am
Yeah, you're perfectly wrong for me

[Outro]
F G
(Visited 1 times, 1 visits today)