Tag: 1975

Love It If We Made It chords by The 1975

Intro + Bridge + Outro riff:
e|--------------------------------------------------|
B|--9--x--x--7--x--x--x--x--------------------------|
G|--9--x--x--9--x--x--x--x--8--x--x--8--x--x--x--x--|
D|--------------------------9--x--x--9--x--x--x--x--| x4
A|--------------------------------------------------|
E|--------------------------------------------------|

[Verse 1]
A
Fucking in a car, shooting heroin
             E
Saying controversial things just for the hell of it
            A
Selling melanin and then suffocate the black men
                C#m
Start with misdemeanours and we'll make a business out of them
                A
And we can find out the information, access all the applications
         E
That are hardening positions based on miscommunication
    A
Oh, fuck your feelings, truth is only hearsay
                   C#m
We're just left to decay, modernity has failed us

[Chorus 1]
                       A
And I'd love it if we made it
                        E
He said, love it if we made it
                        A
He said, love it if we made it
                        C#m
He said, love it if we made it

[Verse 2]
    A
And poison me daddy, I got the jones right through my bones
E
Write it on a piece of stone, a beach of drowning three year olds
A
Rest in peace Lil Peep, the poetry is in the streets
      C#m
Jesus save us, modernity has failed us

[Chorus 2]
                       A
And I'd love it if we made it
                        E
He said, love it if we made it
                        A
He said, love it if we made it
                        C#m
He said, love it if we made it
                      A       
And I'd love it if we made it
        C#m                   E   
And I'd love it if we made it
        C#m           A       
And I'd love it if we made it
        C#m                   E   
And I'd love it if we made it
        C#m
Tell me something I didn't know

[Bridge]
A
Consultation, degradation, fossil fuelling, masturbation
A/E
Immigration, liberal kitsch, kneeling on a pitch

[Verse 3]
        A
I moved on her like a bitch, excited to be indicted
    E
Unrequited house with seven pools, thank you Kanye, very cool
    A
The war has been incited and guess what, you're all invited
           C#m
And you're famous, modernity has failed us

[Outro]
                      A       
And I'd love it if we made it
        C#m                   E
And I'd love it if we made it
        C#m           A       
And I'd love it if we made it
        C#m                   E
Tell me something I didn't know
        C#m           A       
And I'd love it if we made it
        C#m                   E
And I'd love it if we made it
        C#m           A       
And I'd love it if we made it
        C#m                   E  A
And I'd love it if we made it

Give Yourself A Try piano chords by The 1975

[Verse 1]
            B                      D#m      E
You learn a couple things when you get to my age
      B                           D#m                    E
Like friends don't lie and it all tastes the same in the dark
          B                       D#m                       E
When your vinyl and your coffee collection is a sign of the times
               B               D#m         E
You're getting spirituality enlightened at 29


[Chorus]
        B         D#m    E
So just give yourself a try
          B       D#m     E
Won't you give yourself a try?
          B        D#m    E
Won't you give yourself a try?
          G#m      F#   E
Won't you give?


[Verse 2]
   B            D#m              E
I found a grey hair in one of my Zoots
      B                    D#m                 E
Like context in a modern debate I just took it out
    B                 D#m                         E
The only apparatus required for happiness is your pain and fucking going outside
            B         D#m                E
And getting STD's at 27 really isn't the vibe
 B                D#m     E
Jane took her own life at 16,
          B               D#m                  E
She was a kid who had the box tattooed on her arm
    B      D#m      E
And I was 25 and afraid to go outside
  B              D#m          E
A millenial that baby-boomers like


[Chorus]
        B         D#m    E
So just give yourself a try
          B       D#m     E
Won't you give yourself a try?
          B        D#m    E
Won't you give yourself a try?
          G#m      F#    E
Won't you give?


[Interlude]

B   D#m    E
B   D#m    E


[Bridge]
     B                                   E
'And what would you say to your younger self?'
           B
Growing a beard's quite hard
                                   E
And whiskey never starts to taste nice
          B                               
And you'll make a lot of money, and it's funny
                                                        E
'Cause you'll move somewhere sunny and get addicted to drugs
           B                                           E
And spend obscene amounts on fucking seeds and beans online


[Chorus]
        B         D#m    E
So just give yourself a try
          B       D#m     E
Won't you give yourself a try?
          B        D#m    E
Won't you give yourself a try?
          G#m      F#     E
Won't you give?


[Outro]

B    D#m     E
B    D#m     E

Ugh chords – The 1975

 THE 1975 
                
"UGH!"

BPM: 99

Tabbed - Matty Sievers

This song isn;t really using chords, more than likely 
just palm muted power chords on the top four strings with
a fair bit of Chorus and a touch of Drive to give it that kick. 

It's pretty funky and is in B Major with a heavy use of Bmaj7 to get that A# note
fitting in with the Eb. seeing as A# is the Dominant of Eb. This creates that 
melodic yet sort of eccentric and jazzy feel to it. 

I'm not a guitarist by trade, I'm a bass player, so feel free to fuck me up
and hate on me, this is just how I play it and use this to sort of guide my fingers and what not
and it sounds great. 

----------------------------------
INTRO:
 Eb B  x2


VERSE 1:
 Eb B 
Hey boy, stop pacing around the room
       Eb B  
Using other people's faces as a mirror for you
  Eb                       
I know your lungs need filling
 B                    
Since your gums have lost their feeling
   Eb 
But don't say that you're giving it up again
 Bmaj7  
"Do you have a card?
    B Eb Cm B 
My irregular heart beat is starting to correct itself"
      Eb B G# 
It's just a simple diuretic that prevents the empathetic
              Bmaj7 B  
From being just and giving it up


CHORUS:
 Eb 
And you're the only thing that's going on in my mind
 G# 
Taking over my life a second time
 Eb 
I don't have the capacity for fucking
                    Bmaj7  
You're meant to be helping me
 Eb 
When I said I liked it better without my money, I lied
                  Bmaj7  
It took a little while to recognize
 Eb 
That I, I'm not giving it up again

BbEb


Verse 2: 
 Eb G# Eb B  
This conversation's not about reciprocation no more
 Eb B 
But I'm gon' wait until you finish so I can talk some more
  Eb 
About me and my things, my car, my living
             Bmaj7 Eb 
And how I'm giving it up, giving it up again


CHORUS:
 Eb 
And you're the only thing that's going on in my mind
 G# 
Taking over my life a second time
 Eb 
I don't have the capacity for fucking
                    Bmaj7  
You're meant to be helping me
 Eb 
When I said I liked it better without my money, I lied
                  Bmaj7  
It took a little while to recognize
 Eb 
That I, I'm not giving it up again

That I, I'm not giving it up again


BRIDGE: 
 Cm B Cm G# Eb Cm Cm 
Oh the kick won't last for long
 Bmaj7  
But the song only lasts 3 minutes
 G# 
I think I've lost my phone
              Bmaj7  
So won't you call it up for me?

 Cm 
Oh the kick won't last for long
 Bmaj7  
But the song only lasts 3 minutes
 G# 
And I know it's wrong
             Bmaj7  
But give me one

CHORUS:
 Eb 
And you're the only thing that's going on in my mind
 G# 
Taking over my life a second time
 Eb 
I don't have the capacity for fucking
                    Bmaj7  
You're meant to be helping me
 Eb 
When I said I liked it better without my money, I lied
                  Bmaj7  
It took a little while to recognize
 Eb 
That I, I'm not giving it up again

OUTRO:
 Eb Bmaj7  
I'm not giving it up
 Eb Bmaj7  
I'm not giving it up
 Eb Bmaj7  
I'm not giving it up
 Eb

Somebody Else Tabs – The 1975

 -------------------------------------------------------------------------------
                        // S O M E B O D Y  E L S E //
                                  
                                   The 1975
-------------------------------------------------------------------------------

: mileskane

Tuning: Standard (EADGBe)

Adam Hann's solo, tabbed from live performance at Guild of Students, Liverpool, 9/11/2015

e|---------------------------------------------------------------------------|
B|-15b17r15-------15-15-----------15b17r15-------15-15-----------------------|
G|----------14-17--------------------------14-17-----------------------------|
D|---------------------------------------------------------------------------|
A|---------------------------------------------------------------------------|
E|---------------------------------------------------------------------------|

e|---------------------------------------------------------------------------|
B|-15b17r15-------15-15-----------15b17r15-------15--------------------------|
G|----------14-17--------------------------14-17----16-14--------------------|
D|---------------------------------------------------------------------------|
A|---------------------------------------------------------------------------|
E|---------------------------------------------------------------------------|

e|---------------------------------------------------------------------------|
B|-15b17r15-------------15-15-----15b17r15-------15-15-----------------------|
G|----------16p14----17--------------------14-17-----------------------------|
D|----------------17---------------------------------------------------------|
A|---------------------------------------------------------------------------|
E|---------------------------------------------------------------------------|

e|---------------------------------------------------------------------------|
B|-15b17r15-------15-15-----------17-18-17-15----15--------------------------|
G|----------14-17-----------------------------17----17-----------------------|
D|---------------------------------------------------------------------------|
A|---------------------------------------------------------------------------|
E|---------------------------------------------------------------------------|

************************************

| b   Bend
| r   Release

************************************

Girls chords – The 1975 V2

 (Note: not sure if 100% accurate. This is just how I like to play it.)

   B E    
I like your face despite your nose
  B E 
17 and a half years old
     B E 
I'm worrying about my brother finding out
             B E 
Where's the fun in doing what you're told?

         B 
I said "No!
 F# E 
Oh give it a rest, I could persuade you
              B F# 
I'm not your typical, stoned 18 year old
            E 
Give me a night I'll make you.
                B F# 
I know you're looking for salvation in the secular age,
               E 
But girl I'm not your saviour"
 B F# 
Wrestle to the ground
     E 
God help me now

Chorus: B, F#, E (in between the F# and E, you can slide from the fourth fret to 
the sixth, on the D-string, like they do in the song)- repeat throughout 

Cause they're just girls breaking hearts
Eyes bright, uptight, just girls
But she can't be what you need if she's 17
They're just girls
They're just girls

   B E 
A pair of frozen hands to hold,
              B E 
Oh she's so southern so she feels the cold,
                  B                 
One moment I was tearing off your blouse,
            E 
Now you're living in my house.
      B E 
What happened to just messing around?

        B F# E 
I said "Yo, I think I better go; I can't take you.
          B F# E 
You just sit and get stoned with 30 year olds and you think you've made it.
       B F# E 
Well, shouldn't you be fucking with somebody your age instead of making changes?"
 B F# 
Wrestle to the ground
 E 
God help me now

                  
Chorus: B, F#, E (again, slide from the fourth fret to the sixth, on the D-string, 
in between the F# and the E, and repeat

Cause they're just girls breaking hearts
Eyes bright, uptight, just girls
But she can't be what you need if she's 17
They're just girls
They're just girls

     E  (x2)                  B F# 
I told her from the start
     E  (x2)                  B F# 
Destined to be hard
     E  (x2)                
I told her from the start
      B F# 
I'll break your heart
      E  (x2)                
Destined to be hard
  B F#    
Break your heart

         B F# E 
I said "Yo, I think you'd better go; I can't take you.
                B F# 
I know you're looking for salvation in the secular age,
              E 
But girl I'm not your saviour.
          B F# E 
Well, shouldn't you be fucking with somebody your age instead of making changes?"
 B F# 
Wrestle to the ground
      E 
God help me now


(Chorus progression as before: B, F#, E, with the slide)
Cause they're just girls breaking hearts
Eyes bright, uptight, just girls
But she can't be what you need if she's 17
They're just girls
They're just girls

They're just girls breaking hearts
Eyes bright, uptight, just girls
But she can't be what you need if she's 17
They're just girls
They're just girls

Cause they're just girls...
Just girls, they're just girls...

Money Tabs by The 1975

 (/) Slide Up  (\) Slide Down  (h) Hammer On  (p) Pull Off  (b) Bend (r) Release (v) Vibrato

M.O.N.E.Y. - The 1975

Standard Tuning - no capo

, but should be correct.

0:42
E|-----------------|-----------------|
B|-----------------|-----------------|
G|---------12--14--|---------12--14--|
D|--12h14----------|--12h14----------|
A|-----------------|-----------------|
E|-----------------|-----------------|


1:06
E|--------------------------------------------------------------------------------------------------|
B|---------------------------------------------------------------13-12----------------------12------|
G|-14h16-14-----------14-16-14------14-16-14----------14h16--14---------14--14--12--------------14--|
D|----------12h14p12-----------12--------------12-12--------------------------------12--12----------|
A|--------------------------------------------------------------------------------------------------|
E|--------------------------------------------------------------------------------------------------|

E|------------------------------------------------------------------------------|
B|--12--13--12------------------------------------12----------------------------|
G|--------------14--12------------12--14--12----------14------------16--16--14--|
D|----------------------12h14p12--------------12----------12h14p12--------------|
A|------------------------------------------------------------------------------|
E|------------------------------------------------------------------------------|

E|------------------------------------|---------------------|-----------------|--------------|
B|----------------12----------12------|--12b13--12----------|-----------------|--------------|
G|------------14------14----------14--|-------------14--12--|---------12--14--|--14--16--14--|
D|--12h14p12--------------12----------|---------------------|--12h14----------|--------------|
A|------------------------------------|---------------------|-----------------|--------------|
E|------------------------------------|---------------------|-----------------|--------------|

E|------------------|-----------------|
B|--13--12----------|-----------------|
G|----------14--12--|---------12--14--|
D|------------------|--12h14----------|
A|------------------|-----------------|
E|------------------|-----------------|

2:05
E|------------------|-----------------|
B|------------------|-----------------|
G|--14--14--12------|---------12--14--|
D|--------------12--|--12h14----------|
A|------------------|-----------------|
E|------------------|-----------------|

2:13
E|----------------------------------------------------------------------|
B|----------------------------------------------------------------------|
G|--16--14-------------14h16--14-------------14--14--16--14-------------|
D|----------12h14--12-------------12h14--12------------------12h14--12--|
A|----------------------------------------------------------------------|
E|----------------------------------------------------------------------|

E|-----------------------------------------------------|---------------------|-----------------|
B|----------12--13--12---------------------------------|--12b13--12----------|-----------------|
G|--16--14--------------14--12-------------14--16--14--|-------------14--12--|---------12--14--|
D|------------------------------12h14--12--------------|---------------------|--12h14----------|
A|-----------------------------------------------------|---------------------|-----------------|
E|-----------------------------------------------------|---------------------|-----------------|

Robbers chords – The 1975 V2

 ( E ,  B ,  C#m ,  A )x4
She had a face straight out a magazine
God only knows but you'll never leave her
Her balaclava is starting to chafe
And when she gets his gun he's begging, "Babe, stay, stay, stay, stay, stay."

( E ,  B ,  C#m ,  A )x2
I'll give you one more time
We'll give you one more fight
Said one more line
Will I know you

 E ...

( E ,  B ,  C#m ,  A )x4
Now if you never shoot, you'll never know
And if you never eat, you'll never grow
You've got a pretty kind of dirty face
And when she's leaving your home she's begging you, "Stay, stay, stay, stay, stay."

( E ,  B ,  C#m ,  A )x2
I'll give you one more time
We'll give you one more fight
Said one more line
Be a riot, cause I know you

 A 
Well, now that you've got your gun
 E 
It's much harder now the police have come
 A 
Now shoot him if it's what you ask
 B  
But if you just take off your mask
 C#m B A      ( B )
You find out everything's gone wrong.


( E ,  B ,  C#m ,  A )x6 - End on  E  
Now everybody's dead
And they're driving past my old school
And he's got his gun, he's got his suit on
She says, "Babe, you look so cool, you look so cool, you look so cool, cool, cool, cool
You look so cool, you look so cool, you look so cool, cool, cool, cool, cool."

Pressure Tabs by The 1975

 This tab is the basic structure of the song, it is not exact with all the 
background guitar riffs but you can definitely play along without a second 
thought. Hope you like it.

Intro:
e-------------------------------------------------|
B-------------------------------------------------|
G----------12-------------------------------------|
D---12h14------12-12-12-10------------------------| 
A-------------------------------------------------|
E-------------------------------------------------|
Repeat several times, and then the last time do it like this:
e-------------------------------------------------|
B-------------------------------------------------|
G----------12-------------------------------------|
D---12h14------12-12-12-10------------------------| 
A--------------------------12---------------------|
E-------------------------------------------------|


Riff(2nd guitar):
e-------------------------------------------------|
B-------------------------------------------------|
G---12h14--12--9----7-----------------------------|
D----------------12---10--------------------------| 
A-------------------------------------------------|
E-------------------------------------------------|  

Verse 1:
You've seen so many faces that I've never seen before.
I left an un-rewarding message telling you to come on
Over dramatic, automatically assume I'll stay the same.
e-------------------------------------------------|
B-------------------------------------------------|
G---12h14--12--9----7-----------------------------|
D----------------12---10--------------------------| 
A-------------------------------------------------|
E-------------------------------------------------|

Chorus:
e-------------------------------------------------|
B-------------------------------------------------|
G----------12-------------------------------------|
D---12h14------12-12-12-10------------------------| 
A-------------------------------------------------|
E-------------------------------------------------| 
Repeat several times, and then the last time do it like this:
e-------------------------------------------------|
B-------------------------------------------------|
G----------12-------------------------------------|
D---12h14------12-12-12-10------------------------| 
A--------------------------12---------------------|
E-------------------------------------------------|
 

Verse 2:
Well I stay tuned, listen to the news and try to fall asleep at night.
Because I'm living in a house with just three walls,
So I'm always getting recognized.
e-------------------------------------------------|
B-------------------------------------------------|
G---12h14--12--9----7-----------------------------|
D----------------12---10--------------------------| 
A-------------------------------------------------|
E-------------------------------------------------|

Chorus:
e-------------------------------------------------|
B-------------------------------------------------|
G----------12-------------------------------------|
D---12h14------12-12-12-10------------------------| 
A-------------------------------------------------|
E-------------------------------------------------|
Repeat several times, and then the last time do it like this:
e-------------------------------------------------|
B-------------------------------------------------|
G----------12-------------------------------------|
D---12h14------12-12-12-10------------------------| 
A--------------------------12---------------------|
E-------------------------------------------------|

Break

(Change in pressure...):
e-------------------------------------------------|
B---15h17--15--13--------15h17--15--13------------|
G-----------------12------------------------------|
D-------------------------------------------------| 
A-------------------------------------------------|
E---------------------------------

Heart Out chords – The 1975 V2

 Intro:  E ,  F#m ,  D  x6


Verse 1:
 E F#m D 
Rushing in a small town
             E F#m D 
I forgot to call you
      E F#m D 
I'm running low on know how
                       E F#m D 
With this beat I made for two

          E F#m D 
Cause I remember that I like you
     E F#m D 
No matter what I found
                  E F#m D 
She said, "It's nice to have your friends round
                        E F#m D 
But we're watching the television with no   sound"



Chorus:
            E A        
It's just you and I tonight
                D E A 
Why don't you figure my heart out?
            E A 
It's just you and I tonight
                D E A 
Why don't you figure my heart out?


Verse 2:
E                  F#m  D                E--  
Push your lack of chest out, look at my hair
 E F#m D 
Gotta love the way you love yourself
         E F#m 
Your obsession with rocks and brown
      D 
And fucking the whole town's
      E F#m D 
A reflection on your mental health

          E F#m D 
Cause I remember when I found you
       E F#m D 
Much younger than you are now
              E F#m D               
And once we started having friends round
                E F#m D 
You created a television of your mouth


Chorus:
            E A        
It's just you and I tonight
                D E A 
Why don't you figure my heart out?
            E A 
It's just you and I tonight
                D E A 
Why don't you figure my heart out?


Break:
                       A 
You got something to say?
Why don't you speak it out loud, instead of living in your head?
                  A 
It's always the same.
Why don't you take your heart out, instead of living in your head?


Instrumental:  E ,  F#m ,  D  x4

Chorus:
            E A        
It's just you and I tonight
                D E A 
Why don't you figure my heart out?
            E A 
It's just you and I tonight
                D E A 
Why don't you figure my heart out?


Outro:  E ,  F#m ,  D  x4

Robbers chords – The 1975

 *I'm very sorry if the chords aren't in the exact place. I think that these chords work
well with both acoustic guitar and ukulele :D I love playing this song and I hope you do
too :D*

Chords used:  G D Em7 Cadd9

Intro:  G D Em7 Cadd9  (x2)

 G D Em7 Cadd9
 She had a face straight out a magazine
 G D Em7 Cadd9
 God only knows but you'll never leave her
 G D Em7 Cadd9
 Her balaclava is starting to chafe
 G D Em7 Cadd9
 When she get's his gun he's begging "Babe, stay, stay, stay, stay, stay"

Chorus 1:
               G D
I'll give him one more time,
                Em7 Cadd9
We'll give him one more fight,
       G D
Said one more line,
      Em7 Cadd9
Will I know you?

Interlude:  G G D Em7 Cadd9
 Well if you never shoot you'll never know
 G D Em7 Cadd9
 And if you never eat you'll never grow
 G D Em7 Cadd9
 You've got a pretty kinda dirty face
 G D
 When you're leaving your home,
        Em7 Cadd9
She's begging you to stay, stay, stay, stay, stay.

Chorus 2:
               G D
I'll give him one more time,
                Em7 Cadd9
We'll give him one more fight,
       G D
Said one more line,
                        Em7 Cadd9
They'll be a riot cause I know you.


 G D
 Well now that you've got your gun
 Em7 Cadd9
   It's much harder now the police have come
 G D
 Now shoot him if it's what you ask
 Em7 Cadd9
 But if you just take off your mask
 G D Em7 Cadd9

Ghosts chords – The 1975

 Standard tuning

 Ebm :(x68876)
 Db :(x46664)
 F# :(244322)
 B :(224442)

Verse 1:
 F#             
You, you always seem to get what you want
 B F# 
You oh oh, you oh oh you seem to get better
 F# 
And I'm dreaming, you're bleeding, depleted
And I'm bouncing off the floor and your ceiling
This feeling guess the meaning
 B F# 
You know oh oh, you know oh oh you seem to get better


 B B 
And I still lie outside


Chorus: 
 F# B 
Well this car moves faster than I'm ever gonna find you... X2


Verse 2:
 F# 
So go take a little bit if you want
If you want to go take a little bit if you want to
You're bleeding, depleted guess the meaning
 B F# 
You know oh oh you know oh oh you seem to get better
 F# 
I, I I'm the prince of the Tyne
Guess you wouldn't know cause you sleep on your side
                                                 B 
I guess you wouldn't know, I guess you wouldn't know
                 F#  
You seem to get better


Chorus: 
 F# B        
Well this car moves faster than I'm ever gonna find you... X4

 F# 

Break:  Ebm ,  Db ,  B  x3

 Ebm ,  Db ..


Chorus: 
 F# B        
Well this car moves faster than I'm ever gonna find you... X4


Outro:  F#  and  B

You chords – The 1975

 The entire song is just a repetition of G and C until the break which is below.

There is another person with the actual tab. If you are interested this is their link: 
http://tabs.ultimate-guitar.com/t/the_1975/you_tab.htm

Break:  C ,  Em ,  D C ,  G ,  Bm ,  D 
And I say
Do you wanna dance, do you wanna dance, do you wanna dance
In the bar at the back of the hall?
And I say
Do you wanna dance, do you wanna dance, do you wanna dance
Dance in the back of the hall?

Then it continues with G and C until the end.

Chocolate chords – The 1975 V3

 NOTE: This is NOT my tab. Ilsensine originially posted this but didn't put the chords 
all throughout and I usually have trouble piecing it together so I decided to just repost 
it with the chords all throughout.
Chocolate by The 1975

CAPO on 7TH Fret

Chords used:
 Dsus2/G   - 300230
 Asus      - x02230
 Dsus2/B   - x20230
 Dsus2/F#  - 200230
 Dsus2     - x00230


Intro:  Dsus2/G  –  Asus  –  Dsus2/B  –
        Dsus2/F#  -  Dsus2/G  -  Asus 


VERSE I:

          Dsus2/G Asus Dsus/B  -  Dsus/F# 
Hey now call it a spliff 'cause you know that you will

 Dsus2/G Asus Dsus/B  -  Dsus/F# 
Oh you bite your friend like chocolate

          Dsus2/G Asus Dsus/B Dsus/F# 
You say, we'll go where nobody knows, with guns hidden under our petticoats

          Dsus2/G Asus Dsus/B  -  Dsus/F# 
No we're never gunna' quit it, no we're never gunna' quit it no

       Dsus2/G Asus Dsus/B  -  Dsus/F# 
Now we run run away from the boys in the blue

 Dsus2/G Asus Dsus/B  -  Dsus/F# 
And my car smells like chocolate

         Dsus2/G Asus Dsus/B Dsus/F# 
Hey now think about what you do, think about what they say, think about how

   Dsus2/G Asus Dsus/B  -  Dsus/F#  -  Dsus2/G 
to think, pause it play it, pause it play it, pause it


CHORUS:

    Dsus2 Dsus2/G Asus 
Oh we go where nobody knows, with guns hidden under our petticoats

        Dsus2/B Dsus/F#  -  Dsus/G 
No we're never gunna' quit it, no we're never gunna' quit it no

          Dsus2 
Yeah we're dressed in black from head to toe,

     Dsus2/G Asus 
We've got guns hidden under our petticoats

         Dsus2/B Dsus/F#  -  Dsus2/G 
No we're never gunna' quit it. no we're never gunna' quit it no


            Dsus2/G Asus 
Now you're never gunna' quit it, now you're never gunna' quit it, now you're
 Dsus2/B Dsus2/F# 
never gunna' quit it
         Dsus2/G Asus Dsus2/B  -  Dsus2/F# 
If you don't start smoking it, that's what she said
              Dsus2 
She said we're dressed in black, head to toe,
   Dsus2/G Asus 
With guns hidden under our petticoats
       Dsus2/B Dsus/F#  -  Dsus2/G 
No we're never gunna' quit it, no we're never gunna' quit it no
      Dsus2/G Asus Dsus/B  -  Dsus/F# 
Hey now we're building up speed as we're approaching the hill
 Dsus2/G Asus Dsus/B  -  Dsus/F# 
Oh my hair smells like chocolate
          Dsus2/G Asus Dsus/B Dsus/F# 
Hey now you say you're gunna' quit it but you're never gunna' quit it
  Dsus2/G Asus Dsus/B Dsus/F# 
Gotta get it, gotta get it, gotta get it, gotta get it, go!
                Dsus2/G 
And play it cool

CHORUS:
                  Dsus2 Dsus2/G 
Oh and you said we go where nobody knows, with guns hidden under our
   Asus 
petticoats
        Dsus2/B Dsus/F#  -  Dsu

Falling For You chords – The 1975

 I haven't found a tab so I thought I'd post one. 
It's a simple 3 chords song but the timing is key. 
I tried to put the chords in the right places to make it easier.

Capo on the first fret, if you don't have one then the chords are:

 F  -  F# G  -  G# Am  -  Bbm 

INTRO
 F G Am F    

VERSE
                   F 
What time you coming out?
      G 
We started losing light
     Am 
I’ll never make it right
               F 
If you don’t want me round
            G 
I'm so excited for the night
 Am 
All we needs my bike
               F 
And your enormous house
       G 
You said someday we might
             Am 
When I'm closer to your height
                  F 
Till then we'll knock around and see
            G 
If you're all I need
 
CHORUS

 F 
   Don’t you see me now
 G Am 
   I think I’m falling, I’m falling for you
 F 
   Don’t you need me
 G Am 
   I think I’m falling, I’m falling for you
 F 
   On this night and in this light
 G Am 
   I think I’m falling, I’m falling for you
 F 
   Maybe you’ll change your mind
 G 
   I think I’m falling


VERSE
                         F 
I’m caught on your coat again
       G 
You said oh no, it’s fine
   Am 
I read between the lines
                       F 
And touched your leg again
              G 
I’ll take it one day at a time
 Am 
Soon you will be mine
            F 
Oh but I want you now
             G 
When the smoke is in your eyes
 Am 
You look so alive
                 F 
Do you fancy sitting down with me


BRIDGE
                       G Am F 
Maybe ‘cos you’re all I need according to your heart
 G Am 
My place is not deliberate
 F 
Feeling of your arms
 G 
I don’t wanna be your friend, I wanna kiss your neck
 

CHORUS - Same as before

Don’t you see me
I think I’m falling, I’m falling for you
Don’t you need me
I think I’m falling, I’m falling for you
On this night and in this light
I think I’m falling, I’m falling for you
Maybe you’ll change your mind

Sex chords – The 1975 V4

 G : 3 2 0 0 3 3 
 C : 3 2 0 0 1 3
 D : X X 0 2 3 2
 Em : 0 2 2 0 3 0


Intro:  G C  x2
                                 G 
And this is how it starts

Take your shoes off in the back of 
         C 
my van
                                             G 
Yeah, my shirt looks so good
                                                        C 
When it's just hanging off your back
                         G 
And she says use your hands in my 
                                       D 
spare time, we've got one thing in 
                                C 
common, it's this tongue of my mine

She says,

She's got a boyfriend anyway
                     D             
She's got a boyfriend anyway
 G 
       There's only minutes before I 

drop you off
                                                    C 
All we seem to do is talk about sex

She's got a boyfriend anyway
 D 
      She's got a boyfriend anyway
    G 
I loved your friend when I saw his film
                    D 
He's got a funny face

But I like that cause he still looks 
 C 
cool

She's got a boyfriend anyway
 D 
         She's got a boyfriend anyway 
 C                                                     
  Now we're going to bed in my room
 D 
     And I'm about to fill his shoes 
        Em 
But you say no
         D 
But you say no
 C 
       Does he take care of you
 D 
       Or could I easily fill his shoes
 Em 
You say no
 D 
You say no

Interlude:  G G 
    Now we're just outside of town
 D 
    And you're making your way down
 C 
      She's got a boyfriend anyway
 D 
      She's got a boyfriend anyway
         G 
And I'm not trying to stop you love
                     D 
But if we're gonna do anything we 

might as well just fuck
 C 
      She's got a boyfriend anyway
 D 
     She's got a boyfriend anyway
 G 
    You've got your tongue pierced anyway

You in your high tops anyway
 C 
    You in your skinny jeans anyway 
 D G 
      You and your fit friends anyway

I'd take them all out any day
 C 
  They've all got back combs anyway
 D 
     You've all got boyfriends anyway

Outro:  Em C D D G