Tag: agony

Goodbye Agony Tabs – Black Veil Brides

 guitar1:(2x)
|----------------------------------------------------------------------------------------------------------|
|--------2---3-----------------2---------------------------2-----3-----------------------------------------|
|------4-------------------4-------4-----------------4-------------------------------3--------4-----/6-----|
|----------------------------------------------------------------------------------------------------------|
|----2-----------------------------------------------------------------------------------------------------|
|---------------------5--------------------2---------------------------------4-----------------------------|

guitar2:
|----------------------------------------------------------------------------------------------------------|
|------12----------------------------------------------------------------11----------12----------14--------|
|----------------11------12------11------12-------\9------------12-----------------------------------------|
|----------------------------------------------------------------------------------------------------------|
|----------------------------------------------------------------------------------------------------------|
|----------------------------------------------------------------------------------------------------------|

Intro/Chorus lead part 1:
|---------------------------------------------------------------------14-----------------------------------|
|---12---------12---14---15b----------12---14----15--15b--15b---14--------14----12------11---12------------|
|----------11-----------------------11---------------------------------------------------------------------|
|----------------------------------------------------------------------------------------------------------|
|----------------------------------------------------------------------------------------------------------|
|----------------------------------------------------------------------------------------------------------|

|---------------------------------------------------------------------14-----------------------------------|
|---12---------12---14---15b----------12---14----15--15b---15b---14--------14----12----11---12b------------|
|--------11-----------------------11-----------------------------------------------------------------------|
|----------------------------------------------------------------------------------------------------------|
|----------------------------------------------------------------------------------------------------------|
|----------------------------------------------------------------------------------------------------------|

Chorus Lead part2:
|----------------------------------------------------------------------------------------------------------|
|------12--------------------------------------------------------------11----------12------------14--------|
|-------------11------12------11-----12----11-----12------9-----12-----------------------------------------|
|----------------------------------------------------------------------------------------------------------|
|----------------------------------------------------------------------------------------------------------|
|----------------------------------------------------------------------------------------------------------|
solo:

|---14b---14b---12-10---14p10---------------------10------------------14p10--------------------------------|
|--------------------------------12--10--12-------------14--12--14------------12---------------------------|
|----------------------------------------------------------------------------------------------------------|
|----------------------------------------------------------------------------------------11----12b---------|
|----------------------------------------------------------------------------------------------------------|
|--------------------------------------------------------------------------------------------------

The Agony Of Regret Cold Tabs by Five Finger Death Punch

 The Agony of Regret
Five Finger Death Punch

Tuning: Standard B

This a beautiful and strong piece of guitar. So make sure your guitar is tuned in 
standerd B (B E A D F# B). Listen to the song for the rythm.

For the most beautiful sound I suggest to pick everything but the hammer-on part. You 
can play that part like bass players.

NOTE: When tuning your guitar this low it will easily get out of tune. If you play for a 
long time it will stay in tune. So the first 10 minutes you'll need to re-tune pretty much.


B|-----------------------------------|-----------------------------------|
F#---------------0-------------------|---------------0-------------------|
D|-----------2----------2-------2----|-----------2----------2------2-----|
A|-------5------------------3--------|-------5------------------3--------|
E|-----------------------------------|-----------------------------------|
B|---0-------------------------------|---0-------------------------------|

B|---------------------------------|----------------0--------------------------------------|
F#---------------0-----------------|------------1-------1----1-----------------------------|
D|-----------2----------2----------|--------4--------------4-------------------------------|
A|-------5------------------3------|-------------------------------------------------------|
E|---------------------------------|---0------------------------------------5--------------|
B|---3-----------------------------|---------------------------------0h3h5-----5--3--------|

Play twice

B|-------------------------------------|----------------------------------|
F#-----------0----------------0--------|----------0-------------0---------|
D|-------------------------------------|----------------------------------|
A|-------5------5---------5-------5----|------7-------7------7------7-----|
E|----3--------------3-----------------|---5-------------5-------------5--|
B|-------------------------------------|----------------------------------|

B|-------------------------------------|----------------------------------|
F#-----------0----------------0--------|----------0-----------------------|
D|-------------------------------------|----------------------------------|
A|-------5------5---------5-------5----|------7-------7------9------9-----|
E|----3--------------3-----------------|---5-------------/7------7--------|
B|-------------------------------------|----------------------------------|

B|-------------------------------------|----------------------------------|
F#-----------0----------------0--------|----------0-------------0---------|
D|-------------------------------------|----------------------------------|
A|-------5------5---------5-------5----|------7-------7------7------7-----|
E|----3--------------3-----------------|---5-------------5-------------5--|
B|-------------------------------------|----------------------------------|

B|------------------------------------------|
F#------------------------------------------|
D|------------------------------------------|
A|------------------------------------------|
E|-----7--7-----7--7------7-7------7--7-----|
B|--5--------5---------5--------5-----------|

Enjoy!