Tag: all

Fallin All In You piano chords by Shawn Mendes

Shawn Mendes - Fallin' All In You

[Verse 1]
Ab
Sunrise with you on my chest
 Ab
No blinds in the place where I live
 Fm
Daybreak open your eyes
   Fm
'Cause this was only ever meant to be for one night
     Db
Still, we're changing our minds here
 Eb
Be yours, be my dear
 Ab
So close with you on my lips
 Ab
Touch noses, feeling your breath
 Fm
Push your heart and pull away, yeah
 Fm
Be my summer in a winter day love
  Db
I can't see one thing wrong
  Eb
Between the both of us
  Ab
Be mine, be mine, yeah
  Ab
Anytime, anytime

[Pre-Chorus]
 Fm            Db                         Ab               Eb
Ooh you know I've been alone for quite a while, haven't I
 Eb                  Fm
I thought I knew it all
                      Db
Found love but I was wrong
                   Ab
More times than enough
                    Eb
But since you came along

I'm thinking baby

[Chorus]
 Ab                                      Fm
You are bringing out a different kind of me
  Fm                               Db            Eb
There's no safety net that's underneath, I'm free
  Eb
Falling all in
 Ab                                     Fm
You fell for men who weren't how they appear
                                      Db         Eb
Trapped up on a tightrope now we're here, we're free
                Ab
Falling all in you

[Verse 2]
  Ab
Fast forward a couple years, yeah
  Ab
Grown up in the place that we live
  Fm
Make love, then we fight
  Fm
Laugh 'cause it was only meant to be for one night baby
  Db
I guess we can't control
   Eb
What's just not up to us
  Ab
Be mine, be mine, yeah

Anytime, anytime

[Pre-Chorus]
      Fm       Db                         Ab              Eb
Ooh you know I've been alone for quite a while, haven't I
Eb                   Fm
I thought I knew it all
                      Db
Found love but I was wrong
                  Ab
More times than enough
                    Eb
But since you came along

I'm thinking baby

[Chorus]
 Ab                                     Fm
You are bringing out a different kind of me
  Fm                            Db           Eb
There's no safety net that's underneath, I'm free
  Eb
Falling all in
  Ab                                    Fm
You fell for men who weren't how they appear
  Fm                           Db                Eb
Trapped up on a tightrope now we're here, we're free
                Ab
Falling all in you

[Bridge]
  Ab                            Fm
Every time I see you baby I get lost
         Db                           Ab
If I'm dreaming, baby, please don't wake me up
   Eb                                     Fm
Every night I'm with you I fall more in love
                        Db
Now I'm laying by your side
                   Ab                   Eb
Everything feels right since you came along

I'm thinking baby

[Chorus]
 Ab                                            Fm
You, yeah, are bringing out a different kind of me
                                 Db            Eb
There's no safety net that's underneath, I'm free

Falling all in
 Ab                                     Fm
You fell for men who weren't how they appear (Ooh)
   Fm                           Db                Eb
Trapped up on a tightrope now we're here, we're free
                Fm    Ab
Falling all in

All Of Me chords by John Legend

[Intro]
Em  C  G  D  x2

[Verse 1]
Em           Cmaj7                  G
What would I do without your smart mouth
           D                      Em
Drawing me in, and you kicking me out
          C            G               D          Em
Got my head spinning, no kidding, I can't pin you down
             Cmaj7                 G
What's going on in that beautiful mind
                D             Em
I'm on your magical mystery ride
        Cadd9             G                     D         Amadd9
And I'm so   dizzy, don't know what hit me, but I'll be alright

[Pre-Chorus A]
   Am             G
My head's under water
    D              Amadd9
But I'm breathing fine
                 G              D
You're crazy and I'm out of my mind

[Chorus]
       G
Cause all of me
       Emadd9
Loves all of you
          Am/C
Love your curves and all your edges
           C/D        D
All your perfect imperfections
           G
Give your all to me
             Emadd9
I'll give my all to you
          Am/C
You're my end and my beginning
     C/D             D
Even when I lose I'm winning
                  Em   C      G   Dadd9
Cause I give you all, all of me
                 Em   C      G    Dadd9
And you give me all, all of you, oh

[Verse 2]
Em       C                       G
How many times do I have to tell you
                 D                       Em
Even when you're crying you’re beautiful too
              C           G          D                  Em
The world is beating you down, I'm around through every mood
             C                 G
You're my downfall, you're my muse
             D                        Em
My worst distraction, my rhythm and blues
                C             G        D            Am
I can't stop singing, it's ringing, in my head for you

[Pre-Chorus A]
   Am             G
My head's under water
    D              Amadd9
But I'm breathing fine
                 G              D
You're crazy and I'm out of my mind

[Chorus]
       G
Cause all of me
       Emadd9
Loves all of you
          Am/C
Love your curves and all your edges
           C/D        D
All your perfect imperfections
           G
Give your all to me
             Emadd9
I'll give my all to you
          Am/C
You're my end and my beginning
     C/D             D
Even when I lose I'm winning
                  Em   C      G   Dadd9
Cause I give you all, all of me
                 Em   C      G    Dadd9
And you give me all, all of you, oh

[Pre-Chorus B]
Am         G
Cards on the table
       D             Amadd9
We're both showing hearts
Am       G                D
Risking it all, though it's hard

[Chorus]
       G
Cause all of me
       Emadd9
Loves all of you
          Am/C
Love your curves and all your edges
           C/D        D
All your perfect imperfections
           G
Give your all to me
             Emadd9
I'll give my all to you
          Am/C
You're my end and my beginning
     C/D             D
Even when I lose I'm winning
                  Em   C      G   Dadd9
Cause I give you all, all of me
                 Em   C      G    Dadd9
And you give me all, all of you

[Outro]
            Em   C      G   D
I give you all, all of me
                 Em   C      G    D
And you give me all, all of you, oh

All I Want chords by Kodaline

[Verse 1]

C             F       C
All I want is nothing more
                     G/B    Am
To hear you knocking at my door
          F                          C
Cause' if I could see your face once more
        F                   C
I could die a happy man I'm sure

C                  F        C
When you said your last goodbye
                G/B   Am
I died a little bit inside
      F                       C
And I lay in tears in bed all night
   F                    C        G
Alone without you by my side


[Chorus]

           Am
But if you loved me
          F
Why'd' ya leave me
        C
Take my body
        G
Take my body

      Am
All I want is
          F
And all I need is
            C
To find somebody
              G
I'll find somebody


[Interlude]

     C      F      C
Like youuu, ohhhh, oh
C       G       Am
ohhhhh, ohhhhh, oh
F       C
youuuuuu
     F       C
Like youuuuuu


[Verse 2]

     C                 F       C
So you brought out the best of me,
                  G/B    Am
A part of me I've never seen.
     F                          C
You took my soul and wiped it clean.
     F                          C       G
Our love was made for movie screens.


[Chorus]

           Am
But if you loved me
          F
Why'd' ya leave me
        C
Take my body
        G
Take my body

      Am
All I want is
          F
And all I need is
            C
To find somebody
              G
I'll find somebody


[Instrumental]

Dm  G
Dm  G  G


[Bridge]

              Am
Oooohhh Woooo ooohhh ooohhh
               F
Oooohhh Woooo ooohhh ooohhh
               C/G
Oooohhh Woooo ooohhh ooohhh ooohhh ooohhh
              Am
Oooohhh Woooo ooohhh ooohhh
               F
Oooohhh Woooo ooohhh ooohhh
               C
Oooohhh Woooo ooohhh ooohhh ooohhh ooohhh
G
Oooohhh


[Instrumental]

Am  F  C  G
Am  F  C  G


[Chorus]

           Am
But if you loved me
          F
Why'd' ya leave me
        C
Take my body
        G
Take my body

      Am
All I want is
          F
And all I need is
            C
To find somebody
              G
I'll find somebody
     C        F         C
Like youuuuuuuohhhhhhh, ohhhhhhhh

Afterglow chords by All Time Low

[Intro]
D G

[Verse]
D                   A        G
Step outside in the midnight rain
G                     A        D
King and queen of the streets again
D                      A           G
Got young love running through our veins
G                         A   D
And it keeps us numb like novacaine


[Pre-chorus]
G D                G   D
Alright, we can go all night
                G     D               A
'Cause we got a whole lot of fight in us
            G    D                  G  D
And I see a long road that we gotta follow
       G    D           A
Before tomorrow catches up

[Chorus]
D                   G  D
Oh, we just take it easy
Bm              G   D
Hold on to this feeling
D                   G   D
All our friends are leaving
A
And we ain't got nowhere to go
G
Caught up in the afterglow

[Instrumental]
D G

Caught up in the afterglow

[Verse]
D                       G        D
Can't stay here but you can't go home
        A              G         D
Did you hear that line somewhere before?
    D                  G       D
And you look just fine on your own
    A                     G    D
But we look better in the afterglow

[Pre-chorus]
G D                G   D
Alright, we can go all night
                G     D               A
'Cause we got a whole lot of fight in us
            G    D                  G  D
And I see a long road that we gotta follow
       G    D           A
Before tomorrow catches up

[Chorus]
D                   G  D
Oh, we just take it easy
Bm              G   D
Hold on to this feeling
D                   G   D
All our friends are leaving
A
And we ain't got nowhere to go
G
Caught up in the afterglow

D G

A
And we ain't got nowhere to go
G
Caught up in the afterglow

D                   G  D
Oh, we just take it easy
Bm              G   D
Hold on to this feeling
D                      G   D
Oh, no we don't need a reason
A
Cos we ain't got nowhere to go
G
Caught up in the afterglow

[Outro]
D
When the lights go down
Come find me in the afterglow
D
One turn two without
I'll meet you in the afterglow
D
When the lights go down
Come find me in the afterglow
D
One turn two without
I'll meet you in the afterglow

Drugs And Candy chords by All Time Low

Intro and verse riff:
e|-----------------|--------------|--------------|-------------|
B|-----------------|--------------|--------------|-------------|
G|-----------------|--------------|--------------|-------------|
D|--------8----10--|------8---10--|------8---10--|------8---7--|
A|--10-10---10-----|--6-6---6-----|--------------|--8-8---8----|
E|-----------------|--------------|--6-6---6-----|-------------|

[Intro]
Gm Eb Bb F
Gm Eb Bb F

[Verse 1]
Gm                     Eb                 Bb
  I can't take another hollow point conversation
     F               Gm
It's getting hard to fake
                     Eb            Bb
The sound of you, an outlasting vibration
   F                 Gm
Is something I can't shake

[Pre-Chorus 1]
              Eb           Bb
The sweetness of you on my tongue
               F                 Gm
I breathed you in, you filled my lungs
         Eb                Bb
A bitter taste, surrender, waste
        F
Another weakness

[Intrumental]
Gm

[Chorus 1]
Gm                  Eb
You and me are like drugs and candy
 Bb               F
(Drugs and candy) Ah-ah-ah-ah-ah
Gm                    Eb
Take one down for the young and easy
 Bb              F
(Young and easy) Ah-ah-ah-ah-ah
Gm                     Eb
  You get me out of my head
                         Bb
I fill the space in your bed
                        Cm
High on the beat of the breakdown (Breakdown)
       Gm                  Eb
'Cause you and me are like drugs and candy
 Bb                   C
(Drugs and candy) And I don't wanna give it up

[Intrumental]
Gm

[Verse 2]
Gm                   Eb          Bb
  You caught me in a moment of redemption
        F            Gm
There's nothing to explain
                  Eb           Bb
You had me on the edge of indiscretion
    F                 Gm
You said you feel the same

[Pre-Chorus 2]
              Eb           Bb
The sweetness of you on my tongue
               F                 Gm
I breathed you in, you filled my lungs
         Eb                Bb
A bitter taste, surrender, waste
        F
Another weakness

[Chorus 2]
Gm                  Eb
You and me are like drugs and candy
 Bb               F
(Drugs and candy) Ah-ah-ah-ah-ah
Gm                    Eb
Take one down for the young and easy
 Bb              F
(Young and easy) Ah-ah-ah-ah-ah
Gm                     Eb
  You get me out of my head
                         Bb
I fill the space in your bed
                        Cm
High on the beat of the breakdown (Breakdown)
       Gm                  Eb
'Cause you and me are like drugs and candy
 Bb                   C
(Drugs and candy) And I don't wanna give it up
Gm  Eb  Bb               C
       (Drugs and candy) Ah-ah-ah-ah-ah
Gm  Eb  Bb               C
       (Drugs and candy) Ah-ah-ah-ah-ah

[Intrumental]
Gm  Bb

[Bridge]
Gm                           Eb
  The sweetness of you on my tongue
                                 Bb
I breathed you in, you filled my lungs
                          Bb
A bitter taste, surrender waste
        F
Another weakness

[Chorus 3]
Gm                  Eb
You and me are like drugs and candy
 Bb               F
(Drugs and candy) Ah-ah-ah-ah-ah
Gm                    Eb
Take one down for the young and easy
 Bb           F
(Young and) Easy
Gm                     Eb
  You get me out of my head
                         Bb
I fill the space in your bed
                        Cm
High on the beat of the breakdown, breakdown
Gm                     Eb
   You and me are like drugs and candy
 Bb                  C
(Drugs and candy) No I don't wanna give it up
Gm  Eb  Bb               C
       (Drugs and candy) No I don't wanna give it up
Gm  Eb  Bb               C
       (Drugs and candy) Ah-ah-ah-ah-ah
Gm                     Eb
  You get me out of my head
                        Bb
High on the beat of the breakdown
    C
And I don't wanna give it up
Gm  Eb  Bb               C             Gm
       (Drugs and candy) Ah-ah-ah-ah-ah

Dark Side Of Your Room chords by All Time Low

[Intro]
F Bb

[Verse 1]
F
  This moment feels like an echo
Bb
We've done this dance a thousand times
F
  You say that I need a refill
Bb
And twist me up 'til we blur the lines

[Pre-Chorus 1]
F
Oh-oh-oh
                Bb
Girl you make a fool of my heart
F
Oh-oh-oh
                        Bb
You don't know what you do to me

[Chorus 1]
     F
With nights like these, who needs the days?
     Bb
I'll shut my eyes and sleep them away
           F
I'm on the dark side of your room
                         Bb
With the notches on your bedpost
     F
With friends like you, who needs friends?
  Bb
I shut my mouth and we do it all again
           Dm                C
I'm on the dark side of your room
                         Bb
With the notches on your bedpost. With the notches on your

[Verse 2]
F
  This seems so complicated
Bb
Are these your friends, or are they mine?
F
  They love having you stir me up, up
Bb
And leave me burning like the LA fight

[Pre-Chorus 2]
F
Oh-oh-oh
                Bb
Girl you make a fool of my heart
F
Oh-oh-oh
                        Bb
You don't know what you do to me. Do to me, do to me

[Chorus 2]
     F
With nights like these, who needs the days?
     Bb
I'll shut my eyes and sleep them away
           F
I'm on the dark side of your room
                         Bb
With the notches on your bedpost
     F
With friends like you, who needs friends?
  Bb
I shut my mouth and we do it all again
           Dm                C
I'm on the dark side of your room
                         Bb
With the notches on your bedpost
                         F
With the notches on your bedpost
Bb                              F             Bb
       With the notches on your bedpost

[Bridge]
F
Oh-oh-oh
                Bb
Girl you make a fool of my heart
F
Oh-oh-oh
                        Bb
You don't know what you do to me in the dark

[Chorus 3]
     F
With nights like these, who needs the days?
     Bb
I'll shut my eyes and sleep them away
           F
I'm on the dark side of your room
                         Bb
With the notches on your bedpost
     F
With friends like you, who needs friends? (Who needs friends?)
  Bb
I shut my mouth and we do it all again (Do it all again)
           Dm                C
I'm on the dark side of your room
                         Bb
With the notches on your bedpost
                         F
With the notches on your bedpost

(With friends like you, who needs friends?
  Bb
I shut my mouth and we do it all again
           Dm               C
I'm on the dark side of you room
                         Bb
With the notches on your bedpost)
                         F
With the notches on your bedpost

Ground Control chords by All Time Low ver 2

[Intro]
Bm D F#m E

[Verse 1]
Bm           D
   Ground control
            F#m             E
What do the books say about this one now?
        Bm            D
I think we've lost it all
        F#m                    E             Bm
There's nothing to explain the distances any more
                     D
All systems are critical
                          F#m
Can't find my way back to you
                              E
Feels like there's nowhere to go-oh-oh
    Bm                            D
I'm just out here waiting for you to say
          F#m
Don't be afraid, no
E                      A
If you start floating away

[Chorus 1]
                           E
Hey! I promise you will be fine and have
                     D
The universe on your side when
                                                     F#m
You're out in space (you're out in space). Don't you be afraid, (don't you be afraid) no
E                      A
If you start floating away

                           E
Hey! I promise you will be fine and have
                     D
The universe on your side when
                                                     F#m
You're out in space (you're out in space). Don't you be afraid, (don't you be afraid) no
E                      Bm
If you start floating away

[Instrumental]
D F#m E

[Verse 2]
Bm          D
   Checking in
    F#m            E
300 days with no reply now
        Bm           D
I think I've lost my mind
        F#m                     E                 Bm
There's nothing keeping me from going outside any more
                    D
My systems are critical
                          F#m
Gotta find my way back to you
                        E
Feels like I'm drifting alone
    Bm                         D
I'm just out here wishing that you would say
          F#m
Don't be afraid, no
E                      A
If you start floating away

[Chorus 2]
                           E
Hey! I promise you will be fine and have
                     D
The universe on your side when
                                                     F#m
You're out in space (you're out in space). Don't you be afraid, (don't you be afraid) no
E                      A
If you start floating away

                           E
Hey! I promise you will be fine and have
                     D
The universe on your side when
                                                     F#m
You're out in space (you're out in space). Don't you be afraid, (don't you be afraid) no
E                      Bm
If you start floating away

[Instrumental]
D F#m E

[Bridge]
Bm                 D               F#m
  We gotta make contact to make it out
                 E
We gotta make contact to make it
Bm                 D               F#m
  We gotta make contact to make it out
E                      A
If you start floating away

[Chorus 3]
                           E
Hey! I promise you will be fine and have
                     D
The universe on your side when
                                                     F#m
You're out in space (you're out in space). Don't you be afraid, (don't you be afraid) no
E                      A
If you start floating away

                           E
Hey! I promise you will be fine and have
                     D
The universe on your side when
                                                     F#m
You're out in space (you're out in space). Don't you be afraid, (don't you be afraid) no
E                      A
If you start floating away

[Instrumental]
E D

[Outro]
          F#m
Don't you be afraid, no
E                      A
If you start floating away

Ground Control chords by All Time Low

[Intro]
Bm D F#m E

[Verse 1]
Bm           D
 Ground control
            F#m               E
What do the books say about this one now?
             Bm    A  D
I think we've lost it all
        F#m                     E    
There's nothing to explain the distances any more
Bm               A    D
All systems are critical
                          F#m
Can't find my way back to you
                               E
Feels like there's nowhere to go-oh-oh
   Bm                          D
I'm just out here waiting for you to say
           F#m
Don't be afraid, no
E                       A
If you start floating away

[Chorus]
A
Hey!
                        E       
I promise you we'll be fine and have
                      D
The universe on your side when
You're out in space
          F#m
Don't you be afraid, no
E                       A
If you start floating away

A
Hey!
                        E       
I promise you we'll be fine and have
                      D
The universe on your side when
You're out in space
          F#m
Don't you be afraid, no
E                       Bm
If you start floating away

[Instrumental]
D F#m E

[Verse 2]
Bm    A   D
 Checking in
    F#m              E
300 days with no reply now
           Bm     A   D
I think I've lost my mind
        F#m                      E
There's nothing keeping me from going outside any more
Bm                  D
My systems are critical
                         F#m
Gotta find my way back to you
                          E
Feels like I'm drifting away-oh-oh
     Bm                         D
I'm just out here wishing that you would say
           F#m
Don't be afraid, no
E                       A
If you start floating away

[Chorus]
A
Hey!
                        E       
I promise you we'll be fine and have
                      D
The universe on your side when
You're out in space
          F#m
Don't you be afraid, no
E                       A
If you start floating away

A
Hey!
                        E       
I promise you we'll be fine and have
                      D
The universe on your side when
You're out in space
          F#m
Don't you be afraid, no
E                       Bm
If you start floating away

[Instrumental]
D F#m E

[Bridge]
Bm                 D             F#m
 We gotta make contact to make it out
                  E
We gotta make contact to make it
Bm                 D             F#m
 We gotta make contact to make it out

E                       A
If you start floating away

[Chorus]
A
Hey!
                        E       
I promise you we'll be fine and have
                      D
The universe on your side when
You're out in space
          F#m
Don't you be afraid, no
E                       A
If you start floating away

A
Hey!
                        E       
I promise you we'll be fine and have
                      D
The universe on your side when
You're out in space
          F#m
Don't you be afraid, no
E                       A
If you start floating away

[Outro]
E D 
         F#m         
Don't you be afraid, no
E                       A
If you start floating away

Nightmares chords by All Time Low

[Verse]
Am                          G
There's a little house on a perfect little hill
G                F
 Just short of a fairytale
Am                            G
There's a little child with a million ways to feel
G                F
 Caught up in a  hurricane
C     Am
Paper thin walls
G                 F
 Angry words from down the hall
C         Am
Something changed them
G                       F
I think about him every now and again

[Chorus]
C                          G
Now there's a ghost at the back of this room
    Am       G
And I don't like it
C                     G
I fall asleep with my covers pulled up
    Am     G
And try to fight it
C                 C
 I gotta say it's hard to be brave
C                        G
When you're alone in the dark
C                   Am
I told myself that I wouldn't be scared
    Am   G     F               C
But I'm still having nightmares (I'm wide awake, I'm wide awake)
    G      F               C
I'm still having nightmares (I'm wide awake, I'm wide awake)

[Verse]
Am                          G
Every little thing got me coming back around
G               F
 Digging up old memories
Am            G
Always used to be the one to let it go
G                  F
 Got my fears in a suitcase
   C          Am
I locked them away
G                F
 In a place they couldn't find
C          Am
They still haunt me
G                       F
 I think about it every now and again

[Chorus]
C                          G
Now there's a ghost at the back of this room
    Am       G
And I don't like it
C                     G
I fall asleep with my covers pulled up
    Am     G
And try to fight it
C                 C
 I gotta say it's hard to be brave
C                        G
When you're alone in the dark
C                   Am
I told myself that I wouldn't be scared
    Am   G     F               C
But I'm still having nightmares (I'm wide awake, I'm wide awake)
    G      F               C
I'm still having nightmares (I'm wide awake, I'm wide awake)

[Bridge]
C                          G
Now there's a ghost at the back of this room
    Am       G
And I don't like it
C                     G
I fall asleep with my covers pulled up
    Am     G
And try to fight it

[Chorus]
C                          G
Now there's a ghost at the back of this room
    Am       G
And I don't like it
C                     G
I fall asleep with my covers pulled up
    Am     G
And try to fight it
C                 C
 I gotta say it's hard to be brave
C                        G
When you're alone in the dark
C                   Am
I told myself that I wouldn't be scared
    Am   G     F               C
But I'm still having nightmares (I'm wide awake, I'm wide awake)
    G      F               C
I'm still having nightmares (I'm wide awake, I'm wide awake)

C                 C
 I gotta say it's hard to be brave
C                        G
When you're alone in the dark
C                   Am
I told myself that I wouldn't be scared
    Am   G     F               C
But I'm still having nightmares (wide awake, wide awake)
    G      F               C
I'm still having nightmares (wide awake, wide awake)

Coffee Shop Soundtrack Acoustic Tabs – All Time Low Vsion 3

 Coffee Shop Soundtrack (acoustic version)
Artist: All Time Low
 Put Up or Shut Up (2006)

Tuning: D#A#F#C#G#D#

Given that this song is played a little different in every acoustic performance done by the band, 
I put this tab together using bits and pieces of several of their performances, including some addition
of my own, to achieve the best possible sound. For reference, it's closest this version of the song:



Intro:
Eb|-0-0-0-0--0~0-0-0-0-0-0-0--0-0-0-0--0~0-0-0-0-0-0-0--|
Bb|-0-0-0-0--0~0-0-0-0-0-0-0--0-0-0-0--0~0-0-0-0-0-0-0--|
Gb|-6-6-6-6--2~2-2-4-4-4-4-4--6-6-6-6--2~9-9-8-8-8-8-8--|
Db|-6-6-6-6--2~4-4-6-6-6-6-6--6-6-6-6--2~7-7-6-6-6-6-6--| 
Ab|-4-4-4-4--0~x-x-x-x-x-x-x--4-4-4-4--0~x-x-x-x-x-x-x--| 
Eb|-x-x-x-x--0~x-x-x-x-x-x-x--x-x-x-x--0~x-x-x-x-x-x-x--|

Eb|-0-0-0-0-0-0--0-0-0-0-0-0-0-0--0-0~|
Bb|-0-0-0-0-0-0--0-0-0-0-0-0-0-0--0-0~|
Gb|-1-1-1-1-1-1--1-1-4-4-4-4-4-4--4-4~|
Db|-2-2-2-2-2-2--2-2-1-1-1-1-1-1--1-1~|
Ab|-2-2-2-2-2-2--2-2-2-2-2-2-2-2--2-2~| 
Eb|-0-0-0-0-0-0--0-0-x-x-x-x-x-x--x-x~|


Eb|-0-0-0-0--0~~~-0--0--0--0--0--0--0---0-0-0-0--0~0-0-0-0-0-0-0--|
Bb|-0-0-0-0--0~~~-0--0--0--0--0--0--0---0-0-0-0--0~0-0-0-0-0-0-0--|
Gb|-6-6-6-6--13~~-13-13-13-13-13-13-13--6-6-6-6--2~9-9-8-8-8-8-8--|
Db|-6-6-6-6--11~~-11-11-11-11-11-11-11--6-6-6-6--2~7-7-6-6-6-6-6--| 
Ab|-4-4-4-4--x~~~-x--x--x--x--x--x--x---4-4-4-4--0~0-0-0-0-0-0-0--| 
Eb|-x-x-x-x--x~~-~x--x--x--x--x--x--x---x-x-x-x--0~x-x-x-x-x-x-x--|
 

Eb|-0-0-0-0-0-0--0-0-0-0-0-0-0--0-0~|
Bb|-0-0-0-0-0-0--0-0-0-0-0-0-0--0-0~|
Gb|-1-1-1-1-1-1--1-1-4-4-4-4-4--4-4~|
Db|-2-2-2-2-2-2--2-2-4-4-4-4-4--4-4~|
Ab|-2-2-2-2-2-2--2-2-2-2-2-2-2--2-2~| 
Eb|-0-0-0-0-0-0--0-0-x-x-x-x-x--x-x~|


Verse 1:
Should I write myself out of the history books...for every chance you took?

Eb|-0-0-0-0--0~0-0-0-0-0-0-0--0-0-0-0--0~0-0-0-0-0-0-0--0-0-0-0--0~0-0-0-0-0-0-0--0-0-0-0--|
Bb|-0-0-0-0--0~0-0-0-0-0-0-0--0-0-0-0--0~0-0-0-0-0-0-0--0-0-0-0--0~0-0-0-0-0-0-0--0-0-0-0--|
Gb|-6-6-6-6--2~2-2-4-4-4-4-4--6-6-6-6--2~9-9-8-8-8-8-8--6-6-6-6--2~2-2-2-2-2-2-2--4-4-4-4--|
Db|-6-6-6-6--2~4-4-6-6-6-6-6--6-6-6-6--2~7-7-6-6-6-6-6--6-6-6-6--2~2-2-2-2-2-2-2--4-4-4-4--| 
Ab|-4-4-4-4--0~x-x-x-x-x-x-x--4-4-4-4--0~x-x-x-x-x-x-x--4-4-4-4--0~0-0-0-0-0-0-0--2-2-2-2--| 
Eb|-x-x-x-x--0~x-x-x-x-x-x-x--x-x-x-x--0~x-x-x-x-x-x-x--x-x-x-x--0~0-0-0-0-0-0-0--x-x-x-x--|

Eb|-0~0-0-0-0-0-0-0--|
Bb|-0~0-0-0-0-0-0-0--|
Gb|-2~2-2-2-2-2-2-2--|
Db|-2~2-2-2-2-2-2-2--|
Ab|-0~0-0-0-0-0-0-0--| 
Eb|-0~0-0-0-0-0-0-0--|


Don't get me wrong...take the hint, someday

Eb|-0-0-0-0--0~~0--0--0--0--0--0--0---0-0-0-0--0~0-0-0-0-0-0-0--|
Bb|-0-0-0-0--0~~0--0--0--0--0--0--0---0-0-0-0--0~0-0-0-0-0-0-0--|
Gb|-6-6-6-6--13~13-13-13-13-13-13-13--6-6-6-6--2~2-2-4-4-4-4-4--|
Db|-6-6-6-6--11~11-11-11-11-11-11-11--6-6-6-6--2~4-4-6-6-6-6-6--| 
Ab|-4-4-4-4--x~~x--x--x--x--x--x--x---4-4-4-4--0~0-0-0-0-0-0-0--| 
Eb|-x-x-x-x--x~~x--x--x--x--x--x--x---x-x-x-x--0~x-x-x-x-x-x-x--|

I'm sure I'll get the picture, and stop waiting up

Eb|-0-0-0-0--0~0-0-0-0-0-0-0--0-0-0--x-x-x-x--|
Bb|-0-0-0-0--0~0-0-0-0-0-0-0--0-0-0--x-x-x-x--|
Gb|-6-6-6-6--2~2-2-2-2-2-2-2--4-4-4--x-x-x-x--|
Db|-6-6-6-6--2~2-2-2-2-2-2-2--1-1-1--x-x-x-x--| 
Ab|-4-4-4-4--0~0-0-0-0-0-0-0--2-2-2--x-x-x-x--| 
Eb|-x-x-x-x--0~0-0-0-0-0-0-0--x-x-x--x-x-x-x--|

NOTE: Palm muted strokes at the end are optional- you can just continue by playing the final chord for 
an extra beat into the chorus. I just think it sounds good with it!

Chorus:

When it all comes down....carry home?

Eb|-0-0-0-0--0-0-0-0--0-0-0-0--0-0-0-0--0-0-0-0--|
Bb|-0-0-0-0--0-0-0-0--0-0-0-0--0-0-0-0--0-0-0-0--|
Gb|-1-1-1-1--2-2-2-2--6-6-6-6--4-4-4-4--2-2-9-8--|
Db|-2-2-2-2--2-2-2-2--6-6-6-6--4-4-4-4--2-2-7-6--|
Ab|-2-2-2-2--0-0-0-0--4-4-4-4--2-2-2-2--0-0-x-x--|
Eb|-0-0-0-0--0-0-0-0--x-x-x-x--x-x-x-x--0-0-x-x--|

The remains of my wasted youth....shaking in waiting for something more

Eb|-0-0-0-0--0-0-0-0--0-0-0-0--0-0-0-0--0-0-0~--|
Bb|-0-0-0-0--0-0-0-0--0-0-0-0--0-0-0-0--0-0-0~--|
Gb|

All I Wanna Do Is Make Love To You chords – Heart Vsion 2

 Intro:  G C G C G Bm 
1. It was a rainy night when he came into sight,
 C G 
standing by the road, no umbrella, no coat.
                                 Bm 
So I pulled up along side and I offered him a ride,
    C D 
he accepted with a smile, so we drove for a while.

          G Em 
I didn't ask him his name, this lonely boy in the rain.
      C 
Fate tell me it's right, is this love at first sight.
         D 
Please, don't make it wrong, just stay for the night.

Refr.:
 G C 
All I wanna do is make love to you. Say you will you want me, too.
 G C 
All I wanna do is make love to you. I've got lovin' arms to hold on to.

          G Bm 
2. So we found this hotel, it was a place I knew well.
    C G 
We made magic that night. Oh, he did everything right.
                                         Bm 
He brought the woman out of me, so many times, easily.
            C D 
And in the morning when he woke, all I left him was a note.

            G 
I told him I am the flower you are the seed,
    Em 
we walked in the garden, we planted a tree.
       C 
Don't try to find me, please don't you dare,
      D 
just live in my memory, you'll always be there.

Refr. 2:
 G C 
All I wanna do is make love to you, one night of love was all we knew.
 G C 
All I wanna do is make love to you, I've got lovin' arms to hold on to
 D Em 
Oh, oooh, we made love, love like strangers.
 C G 
All night long we made love.

    G Bm 
3. Then it happened one day, we came round the same way.
 C G 
You can imagine his surprise when he saw his own eyes.
        Bm 
I said please, please understand, I'm in love with another man.
 C D 
And what he couldn't give me, was the one little thing that you can.

Refr. 3:
 G C 
All I wanna do is make love to you, one night of love was all we knew.
 G 
All I want to do is make love to you.
 C 
Come on, say you will, you want me, too.

Refr. 3:
 G C 
All I wanna do is make love to you, one night of love was all we knew.
 G 
All I want to do is make love to you.
 C 
Come on, say you will, you want me, too.

All I Know chords – Art Garfunkel Vsion 3

 I play it with capo @ 6

intro
%  G C D G G C D G D C D Cmaj7 G C Bm D G G C 
I bruise you
 D G 
You bruise me
 G C D G 
We both bruise too easily
     D C D Cmaj7  %    G 
Too easily to let it show
    C Bm D7 G 
I love you and that's all I know

 G C 
All my plans
 D G 
Have fallen through
 G C D G 
All my plans depend on you
     D C D Cmaj7  %    G  
Depend on you to help them grow
    C Bm D7 G 
I love you and that's all I know

        Chorus 
          Bm Em 
When the singer's gone
   | G D C D Cmaj7 Cadd9 
Let the song go on...


 G C 
But the ending always 
 D G 
comes at last
 G C D G 
Endings always come too fast
     D C D Cmaj7  %    G 
They come too fast  But they pass to slow
    C Bm D7 G 
I love you and that's all I know

  Em Dm Em C 
When the singer's gone, let the song go on.
       
 F C G C 
It's a fine line between the darkness and the dawn.
     
 F C F G 
They say in the darkest night, there's a light beyond.

 G C F G C F G C 
But the ending always comes at last. Endings always come too fast.
      G Dm G F 
They come too fast, but they pass too slow.
 C F G C F 
I love you and that's all       I know.
              C G F 
That's all I know.
              C G F 
That's all I know-oh,  oh-oh.

Outtro:  Repeat and fade    C    G      F
                            Oh   oh,    oh.

Sick Of It All chords – Matt York

 C#sus2 C#5 Asus2 A5 B5 Bsus2 C#sus2 C#5 C#sus2 C#5 C#sus2 C#5 

Well I'm sick of it all and I'm tired of you 

 Asus2 A5 B5 Bsus2 

and I don't want you around here no more

 C#sus2 C#5 C#sus2 C#5 C#sus2 C#5 

Sick of it all and I'm tired of you 

 Asus2 A5 B5 Bsus2 

and I don't want you around here no more

 C#sus2 C#5 Asus2 A5 B5 Bsus2 C#sus2 C#5 C#sus2 C#5 C#sus2 C#5 

From the start I knew my heart was on the line

 Asus2 A5 B5 Bsus2 C#sus2 C#5 C#sus2 C#5 C#sus2 C#5 

From the start I knew my heart was on the line again


Well I'm sick of it all and I'm tired of you 

 Asus2 A5 B5 Bsus2 

and I don't want you around here no more

 C#sus2 C#5 C#sus2 C#5 C#sus2 C#5 

Sick of it all and I'm tired of you 

 Asus2 A5 B5 Bsus2 

and I don't want you around here no more

 C#sus2 C#5 C#sus2 C#5 C#sus2 C#5 

From the start I knew my heart was on the line

 Asus2 A5 B5 Bsus2 C#sus2 C#5 C#sus2 C#5 C#sus2 C#5 

From the start I knew my heart was on the line

 Asus2 A5 B5 Bsus2 C#sus2 C#5 Asus2 A5 B5 Bsus2 C#sus2 C#5 Asus2 A5 B5 Bsus2

All We Sinners chords – Crowder

 Artist: Passion (Crowder)
 Salvation's Tide Is Rising
Song: All We Sinners

Key: A | Capo: 2


Verse 1:
    G C2 G 
On yonder hill, the darkness flew
     G Dsus4 
The morning broke in light and dew
      G C2 G 
When day had come again anew
 Em Dsus4 G 
All we sinners sang


Verse 2:
    G C2 G 
In muck and mire, our wretched souls
     G Dsus4        
Had fallen to the depths below
 G C2 G 
Hell deserved, but there was hope
 Em Dsus4 G 
All we sinners sang


Chorus:
 C Em 
Saved, we are saved
     G Dsus4 
The gates of heaven wide open
 C Em 
Saved, we are saved
     G Dsus4  
The keys to the grave have been stolen


Verse 3:
 G C2 G 
What could ever pay the cost
    G Dsus4 
On Calvary's hill, there rose a cross
     G C2 G 
And could it be that evil lost
 Em Dsus4 G 
All we sinners sang
     G Dsus4 G 
And all we sinners sang


Chorus


Instrumental (x2):  Em  |||  C2  |||  G  |||  Dsus4  |||


Verse 4:
     G C2 G 
The crimson river, like a flood
      G Dsus4   
Came washing over all of us
    Em C2 G 
It swallowed sin and death right up
     Em Dsus4 G 
And all we sinners sang
       G Dsus4 G 
Yeah, all we sinners sang


Chorus (x2)


Ending:
    G C2 G 
On yonder hill, where darkness flew
     G Dsus4 
The morning breaks in light and dew
 G C2 G 
Day has come again anew
 Em Dsus4 G 
All we sinners sing

The End Of All Things Tabs – Panic! At The Disco Vsion 3

 : jcameronp
Tuning: standard, capo on 1 (notes relative to capo, so fret 7 with capo on 1 is actually played at fret 8)


Intro:

(make sure to emphasize the high e of every chord)

e|-0~-3-5-7~-2~-0~-3-5--10~-5~-3~-3-5-7~-2~-0~-3-5-10-5-3~-------------------|
B|-0~-----0~-3~-0~------7~--x~-0~-----0~-3~-0~----------0~-------------------|
G|-0~-----0~-2~-0~------7~--4~-0~-----0~-2~-0~----------0~-------------------|
D|-2~-----5~-0~-2~------7~--4~-2~-----5~-0~-2~----------2~-------------------|
A|-3~-----7~----3~------9~--5~-3~-----7~----3~----------3~-------------------|
E|---------------------------------------------------------------------------|

Verse:

Whether near or far...

e|-3-5-7~-2~-0~-3-5-10~-5~-3~-3-5-7~-2~-3-5-7~-7-7-5~------------------------|
B|-----0~-3~-0~-----7~--x~-0~-----0~-3~-----0~-----x~------------------------|
G|-----0~-2~-0~-----7~--4~-0~-----0~-2~-----0~-----4~------------------------|
D|-----5~-0~-2~-----7~--4~-2~-----5~-0~-----5~-----4~------------------------|
A|-----7~----3~-----9~--5~-3~-----7~--------7~-----5~------------------------|
E|---------------------------------------------------------------------------|

Prechorus:

Lay us down...

e|-3-----5-------7---------5-5-7---------5-----------------------------------|
B|-1-----3-------8---------3-3-5---------3-----------------------------------|
G|-0-----4-----------------4-4-4---------4-----------------------------------|
D|---------------------------------------------------------------------------|
A|---------------------------------------------------------------------------|
E|---0-0---0-0-0---0-0-0-0-------0-0-0-0---0-0-0-0---------------------------|

e|-3-----5-------7---------5-3-7---------5-----------------------------------|
B|-1-----3-------8---------3-1-5---------3-----------------------------------|
G|-0-----4-----------------4-0-4---------4-----------------------------------|
D|---------------------------------------------------------------------------|
A|---------------------------------------------------------------------------|
E|---0-0---0-0-0---0-0-0-0-------0-0-0-0---0-0-0-0---------------------------|

Guitar 2 (optional along with piano)

e|-16-18-20-18-18-20-18--16-18-20-18-16-23-----------------------------------|
B|---------------------------------------------------------------------------|
G|---------------------------------------------------------------------------|
D|---------------------------------------------------------------------------|
A|---------------------------------------------------------------------------|
E|---------------------------------------------------------------------------|

Chorus:

e|-23-22-18-23-22-18-23-22-18-20---------------------------------------------|
B|---------------------------------------------------------------------------|
G|---------------------------------------------------------------------------|
D|---------------------------------------------------------------------------|
A|---------------------------------------------------------------------------|
E|---------------------------------------------------------------------------|

or if your guitar doesn't have that many frets you can play

e|-11-10----11-10----11-10---------------------------------------------------|
B|-------11-------11-------11-13---------------------------------------------|
G|---------------------------------------------------------------------------|
D|---------------------------------------------------------------------------|
A|---------------------------------------------------------------------------|
E|---------------------------------------------------------------------------|

e|---------------------------------------------------------------------------|
B|---------------------------------------------------------------------------|
G|-0-2-4---------------------------------------------------------------------|
D|-----5-------4-------------------------------------------------------

All Of Me chords – Fifth Harmony

 -------------------------------------------------------------------------------
              All Of Me - Fifth Harmony (John Legend cover)
-------------------------------------------------------------------------------
: Rebecca

CAPO 2



 Em C G   
What would I do without your smart mouth
             D Em 
Drawing me in, and kicking me out
           C G D Em 
Got my head spinning, no kidding, I cant pin you down
              C G 
Whats going on in that beautiful mind
                D Em 
Im on your magical mystery ride
         C G D Am 
And Im so dizzy, dont know what hit me, but Ill be alright

[Bridge] (Am, Em, D)
 Am Em 
My heads under water
     D Am 
But Im breathing fine
                 Em D 
Youre crazy and Im out of my mind

[Chorus] (G, Em, Am, D)
        G 
Cause all of me
        Em 
Loves all of you
             Am 
Love your curves and all your edges
            D 
All your perfect imperfections
            G 
Give your all to me
             Em 
Ill give my all to you
          Am 
Youre my end and my beginning
       D 
Even when I lose Im winning
                   Em C G 
Cause I give you all, all of me
                  Em C G D 
And you give me all, all of you, oh


[Bridge]
 Am Em 
Cards on the table
        D Am  
Were both showing hearts
 Am Em D 
Risking it all, though its hard


[Chorus] 
        G 
Cause all of me
        Em 
Loves all of you
             Am 
Love your curves and all your edges
            D 
All your perfect imperfections
            G 
Give your all to me
             Em 
Ill give my all to you
          Am 
Youre my end and my beginning
       D 
Even when I lose Im winning
                   Em C G 
Cause I give you all, all of me
                  Em C G D 
And you give me all, all of you, oh
                   Em C G 
Cause I give you all, all of me
                  Em C G D 
And you give me all, all of you, oh

All For You Tabs – Liveloud

 All For You    : Rodino Sim of SFC CC3
Words and Music by: Dexter Suban
Intro

Guitar 1
Riff 1
E|-------------------------------------------------------------9-9-9-10p9----------| 
B|-10-10-10-9-9-9-5-5-5-10-10-10-9-9-9-12-12-12--10-10-10-9-9-9-----------12-12-12-| 
G|---------------------------------------------------------------------------------| 
D|---------------------------------------------------------------------------------| 
A|---------------------------------------------------------------------------------|
E|---------------------------------------------------------------------------------|

Riff 2
E|------------------------------------------------------------9-9-9-10p9----|
B|-10-10-10-9-9-9-5-5-5-10-10-10-9-9-9-12-12-12—10-10-10-9-9-9-----------12-|
G|--------------------------------------------------------------------------|
D|--------------------------------------------------------------------------|
A|--------------------------------------------------------------------------|
E|--------------------------------------------------------------------------|
then
E|-----------------|
B|-101010-999-9s7v-|
G|-----------------|
D|-----------------|
A|-----------------|
E|-----------------|

Guitar 2
E|---------------------------------|----------------------|--------------|----------|
B|---------------------------------|----------------------|--------------|----------|
G|---------------------------------|----------------------|------6v--6v--|-99999999-|
D|---------------------------------|----------------------|----76--76-9--|-99999999-| 2x
A|-----4/5-----4/5-----4/5-----4/5-|-999--777-444-555-777-|-00-----------|-77777777-|
E|-2-2-----2-2-----2-2-----2-2-----|----------------------|--------------|----------|
PM|. .     . .     . .     . .       ...  ... ... ... ...   ..            ........|

Verse

Guitar 1
(Enters at “Your love it helped me overcome”)
E|------------------------------------------| 
B|------------------------------------------| 
G|-----------77777777------------99999999---| 
D|-44444444--77777777--77777777--99999999---| 
A|-44444444--55555555--77777777--77777777---|
E|-22222222------------55555555-------------|

Guitar 2
(Enters at “Your love it helped me overcome”)
Guitar 2
E|---------------------------------|----------------------|--------------|----------|
B|---------------------------------|----------------------|--------------|----------|
G|---------------------------------|----------------------|------6v--6v--|-99999999-|
D|---------------------------------|----------------------|----76--76-9--|-99999999-| 2x
A|-----4/5-----4/5-----4/5-----4/5-|-999--777-444-555-777-|-00-----------|-77777777-|
E|-2-2-----2-2-----2-2-----2-2-----|----------------------|--------------|----------|
PM|. .     . .     . .     . .       ...  ... ... ... ...   ..            ........|

Refrain

Guitar 1 
E|---------9-9-9------7-7-7-|------------------------------|
B|--------------------------|--10-10-10-9-9-9-5-5-5-5-5-5--|
G|-11-9-11-------9-7-9------|------------------------------|
D|--------------------------|------------------------------|
A|--------------------------|------------------------------|
E|--------------------------|------------------------------|
then
E|---------9-9-9------7-7-7-|------------------------------------|
B|--------------------------|--10-10-10-9-9-9-12-12-12-12-12-12--| 
G|-11-9-11-------9-7-9------|------------------------------------| 
D|--------------------------|------------------------------------|
A|--------------------------|------------------------------------| 
E|--------------------------|------------------------------------|
then
E|---------9-9-9------7-7-7-|---------------|
B|--------------------------|--10-10-10-9v--| 
G|-11-9-11-------9-7-9------|---------------| 
D|--------------------------|---------------|
A|--------------------------|---------------| 
E|--------------------------|---------------|
“I choose the path you lived”
E|-------------------------|

All In One Night chords – Johnny Duncan

 C Em F 
All in one night I caught a star and touched the moon

     G7 C 
And fell in love with you

                            Em F 
All in one night I found a dream when I found you

   G7 C 
I felt my life begin


    F G7 C 
My love is yours forever

    F G7 C 
My heart is yours to own

 F G7 C 
I'll forget you never

 D7 G7 
Because true love you've shown


 C Em 
All in one night my whole life changed
 
 F 
With one sweet girl

 G7 C 
An answered prayer came true

             G7 C 
All in that night when I found you


    F G7 C 
My love is yours forever

    F G7 C 
My heart is yours to own

 F G7 C 
I'll forget you never

 D7 G7 
Because true love you've shown


    F G7 C 
My love is yours forever

    F G7 C 
My heart is yours to own

 F G7 C 
I'll forget you never

 D7 G7 
Because true love you've shown


    F G7 C 
My love is yours forever

    F G7 C 
My heart is yours to own

 F G7 C 
I'll forget you never

 D7 G7 
Because true love you've shown

All I Need Is You chords – Carl Belew

 C F C 
Find the loneliest girl in a thousand

 G7 C 
Find the saddest eyes you've ever seen

                    F C 
Find someone who's always longing for you

 G7 C 
Find that man and you found me


                   G7 
And all I need is you

               C 
All I want is you

                   G7 
To give my lovin' to

               C 
All I need is you


                F C 
Find a man who wakes up every morning

 G7 C 
And lives in a world of make believe

                    F C 
Find someone whose arms are aching for you

 G7 C 
Find that girl and you found me


                   G7 
And all I need is you

               C 
All I want is you

                   G7 
To give my lovin' to

               C 
All I need is you


                       F C 
You're with me now so let the world forsake us

 G7 C 
I've found my heaven here within your arms

                     F C 
And nothing in this world can separate us

 G7 C 
You're all I ever wanted all along


                   G7 
And all I need is you

               C 
All I want is you

                   G7 
To give my lovin' to

               C 
All I need is you


                   G7 
And all I need is you

               C 
All I want is you

                   G7 
To give my lovin' to

               C 
All I need is you

After All chords – Joni Harms

 C F C 
After all we've been through together

                                        G7 
Who'd believe we'd still be so much in love

       C C7 F 
After all it just keeps getting better

                    C G7 C 
There's no one for me but you after all


        G7 F C 
Before you  love was only in my dreams

                 G7 C 
And through the years we've made a few come true

             D7 G7 
No we can't say that love's always easy

          D7 G7 
But it's always worth it with you


 C F C 
After all we've been through together

                                        G7 
Who'd believe we'd still be so much in love

       C C7 F 
After all it just keeps getting better

                    C G7 C 
There's no one for me but you after all


 C F C 
After all we've been through together

                                        G7 
Who'd believe we'd still be so much in love

       C C7 F 
After all it just keeps getting better

                    C G7 C 
There's no one for me but you after all


 F C G7 F C 
No there's no one for me but you after a--ll