Tag: Amp

Dios De Toda Gracia chords – Gracia & Verdad Musica

 Dios de Toda Gracia - Gracia & Verdad Musica

Intro:  F  –  Dm  –  Bb Bbm 

 Verso 1: 
 F 
Eres el Dios de la eternidad, 
 Dm 
fuente de vida a la humanidad. 
 Bb Bbm F 
 Hemos visto tu gloria, revelarse. 

 F 
Eres amor que del cielo bajo, 
 Dm 
misericordia que nos abrazo. 
 Bb Gm 
 Has sido nuestro refugio, 
 C 
nuestra justicia. 

Coro:
 F 
Dios de toda gracia, resplendor de libertad. 
 Dm 
Redentor del alma, luz de amor y de verdad. 
 C 
Tuya sea la gloria
 Bb F C 
Tuya sea la gloria

 Verso 2: 
 F 
Viniste a ser nuestra ofrenda de paz 
 Dm 
nuestra esperanza de libertad. 
 Bb Bbm F  
Al llevar en tu muerte, nuestra culpa. 

 F 
En tu castigo hallamos perdon, 
 Dm 
en tu sacrificio el cielo se abrio 
 Bb Gm C 
 cuando en la cruz por nosotros, quisiste entregarte. 

Coro:
 F 
Dios de toda gracia, resplendor de libertad. 
 Dm 
Redentor del alma, luz de amor y de verdad. 
 C 
Tuya sea la gloria
 Bb F C 
Tuya sea la gloria

 F 
Viviste tu la vida, que jamas pude vivir. 
 Dm 
Sufriste tu la muerte, que yo mereci morir. 
 C 
Tuya sea la gloria
 Bb F C 
Tuya sea la gloria

(Intrumento) 

 F 
Viviste tu la vida, que jamas pude vivir. 
 Dm 
Sufriste tu la muerte, que yo mereci morir. 
 C 
Tuya sea la gloria
 Bb F C 
Tuya sea la gloria

 F 
Dios de toda gracia, resplendor de libertad. 
 Dm 
Redentor del alma, luz de amor y de verdad. 
 C 
Tuya sea la gloria
 Bb F C 
Tuya sea la gloria

Final: 
 C 
Tuya sea la gloria
 Bb F C 
Tuya sea la gloria
 C Bb Bbm F  
Tuya sea la gloria

God Is In The Rhythm chords – King Gizzard & The Lizard Wizard

 Note: the format here is for the short version, not the full 10-minute version. The full version
has no additional chords, just slightly different song format to the short version.


[Verse 1/Chorus 1]
 F# D#m B C F# D#m B C 
Earth by the moon, darker days come soon
 F# D#m B C F# D#m B C 
Owl sings a tune, surely she knows too
 D#m Cm 
  Bird is waiting, expectating
 Bm C 
  God is in the rhythm


[Verse 2/Chorus 2]
 F# D#m B C F# D#m B C 
Earth by the sun,  brighter days to run
 F# D#m B C F# D#m B C 
Rain knows the sun,  knows it's not time to come
 D#m Cm 
  Rain is waiting, expectating
 Bm C 
  God is in the rhythm


[Solo]
 F# D#m B C  (x4)
 D#m Cm Bm C          

[Verse 3/Chorus 3]
 F# D#m B C F# D#m B C 
Seasons move, everybody knows it's true
 F# D#m B C F# D#m B C 
Springs brings a dew,  hibernates winters tune
 D#m Cm 
  Summer's waiting, expectating
 Bm C 
  God is in the seasons


[Interlude]
 F# D#m B C  (x4)

[Chorus 3]
 D#m Cm 
  Summer's waiting, expectating
 Bm C 
  God is in the seasons

[Outro]
 F# D#m B C  (until fade)

Else Tabs – Dog & Panther

 -------------------------------------------------------------------------------
                             ELSE - Dog & Panther
-------------------------------------------------------------------------------

C: 032010
F: --3211
Fmaj7: 003210
Em: 022000
G: 320003

      C
e|---------------------------------------------------
B|-----------1-----------1------------1-----------1--
G|-----0-----------0------------0-----------0--------
D|--------2-----------2------------2-----------2-----
A|--3-----------3------------3-----------3-----------
E|---------------------------------------------------
      F                        Fmaj7
e|-----------1-----------1------------0-----------0--
B|-----1-----------1------------1-----------1--------
G|--------2-----------2------------2-----------2-----
D|--3-----------3------------3-----------3-----------
A|---------------------------------------------------
E|---------------------------------------------------
      Em                       G
e|------------------------------------3-----------3--
B|-----------0-----------0---------------------------
G|-----0-----------0---------------------------------
D|--------2-----------2---------0-----------0--------
A|--2-----------2------------------2-----------2-----
E|---------------------------3-----------3-----------
Strum C on the last word

One is best
One is best
Two is so much sweeter
April's cold water falling
The dotted yellow line
Guides me back to bed

If this is life
This is life
Always moving on
No time for myself
Here is now
Who picks up my pieces

If this is it
This is it
All was well
I won’t get another chance
I can still feel her hands
I thought I found her

But she won’t
But she won’t
Think about the future
Or get a steady job
She's so much like my mom
Go now

Hold someone else

************************************

La La La chords – Gerry & The Pacemakers

 La La La - Gerry and the Pacemakers

Released in 1966, minor hit in Canada and the US. Didn't chart in the UK.

Fill tab:

            
e-------------------|
B-------------------|
G-------------------|
D----2--------------|
A--2---4-2----------|
E----------0-3b-3b-0|


Intro:
/  E7  /  A  /  E7  /  A   /  E  /  A A G D  /  E  /  A A G D  /
#1:
 E A 
Now I'm gonna try and find a girl
          E B7 
Who will make me feel so good
      E A 
And  when I do, I'll sing this song
       E B7 E      (  E A6 E  )
And I know I'll love her like I should
 E7 A        [ Fill ]
I'll sing:

Chorus:
 E A B7 E B7 
La la la la, la-la la la la-la-la la
 E A B7 E B7 E 
La la la la,  la la la la la la la

#2:
 E A 
Whenever I am lonely, girl
             E B7 
And I ain't got no place to go
   E A 
I don't sit around and mope all day
       E B7 E   (  E A6 E  )
I get up and here's what I say
 E7 A        [ Fill ]
I  say:

Chorus:
 E A B7 E B7 
La la la la, la-la la la la-la-la la
 E A B7 E B7 E 
La la la la,  la la la la la la la

Bridge:
 A 
You get no fun out of hangin' around
    E A E 
Or moanin' every day and night
      G# C#m 
It's so much better if you take it all
     F#m7 B7 
And come up shouting nice and bright
 B7 
Well let me hear you now:

Chorus:
 E A B7 E B7 
La la la la, la-la la la la-la-la la
 E A B7 E B7 E 
La la la la,  la la la la la la la


/  E7  /  A  /  E7  /  A   /  E  /  A A G D  /  E  /  A A G D  /

#3:
 E A 
If you got your troubles
             E B7 
Just like all the other guys
       E A 
Don't be a jerk like them, my friend
       E B7 E    (  E A6 E  )
Just shout this song out nice and high
 E7 A         [ Fill ]  
Let's shout:

Chorus:

 E A B7 E B7 
La la la la, la-la la la la-la-la la
 E A B7 E B7 E 
La la la la,  la la la la la la la

Outro:

 E7 A E B7 E6 
la la la la la

Words Of Love Tabs – The Mamas & The Papas Vsion 1

 WORDS OF LOVE

As recorded by The Mamas & The Papas
(From the 1966 Album THE MAMAS & THE PAPAS)

Words and Music by John Phillips

 Slowhand


Gtr I (E A D G B E) - 'John Phillips - Electric Guitar'


 Intro
 Shuffle Q=112(8=s8)
                        E          Abm/Eb       Dbm            Eb   Ab
 4/4
  Gtr I (Clean El. Gtr.)
  W          W           E  E  E E  E  E  E E    E  E  E  E  E  E E E
|----------|----------|-12-12-12-x-11-11-11-x-|--9--9--9--9--9-11---4--|
|----------|----------|-12-12-12-x-12-12-12-x-|--9--9--9--9--9-11---4--|
|----------|----------|-13-13-13-x-13-13-13-x-|--9--9--9--9--9-12---5--|
|----------|----------|-14-14-14-x-13-13-13-x-|-11-11-11-11-11-13---6--|
|----------|----------|-----------------------|------------------------|
|----------|----------|-----------------------|------------------------|


                                        1st Verse
                      Eb7                Ab7               Gb7
  +E  E E E E E E E   E E E E E E E E    E E E E E E E E   E E E E E E E E
|-(4)-4-4-x-4-4-4-x-|-----------------||-4-4-4-x-4-4-4-x-|-2-2-2-x-2-2-2-x--|
|-(4)-4-4-x-4-4-4-x-|-4-4-4-x-4-4-4-x-||-4-4-4-x-4-4-4-x-|-2-2-2-x-2-2-2-x--|
|-(5)-5-5-x-5-5-5-x-|-6-6-6-x-6-6-6-x-||-5-5-5-x-5-5-5-x-|-3-3-3-x-3-3-3-x--|
|-(6)-6-6-x-6-6-6-x-|-5-5-5-x-5-5-5-x-||-4-4-4-x-4-4-4-x-|-2-2-2-x-2-2-2-x--|
|-------------------|-6-6-6-x-6-6-6-x-||-6-6-6-x-6-6-6-x-|-4-4-4-x-4-4-4-x--|
|-------------------|-----------------||-4-4-4-x-4-4-4-x-|-2-2-2-x-2-2-2-x--|


  Cb7               Bb7     Eb7       Ab7               Gb7
  E E E E E E E E   E E E E E E E E   E E E E E E E E   E E E E E E E E
|-7-7-7-x-7-7-7-x-|-6-6-6-x---------|-4-4-4-x-4-4-4-x-|-2-2-2-x-2-2-2-x--|
|-7-7-7-x-7-7-7-x-|-6-6-6-x-4-4-4-x-|-4-4-4-x-4-4-4-x-|-2-2-2-x-2-2-2-x--|
|-8-8-8-x-8-8-8-x-|-7-7-7-x-6-6-6-x-|-5-5-5-x-5-5-5-x-|-3-3-3-x-3-3-3-x--|
|-7-7-7-x-7-7-7-x-|-6-6-6-x-5-5-5-x-|-4-4-4-x-4-4-4-x-|-2-2-2-x-2-2-2-x--|
|-9-9-9-x-9-9-9-x-|-8-8-8-x-6-6-6-x-|-6-6-6-x-6-6-6-x-|-4-4-4-x-4-4-4-x--|
|-7-7-7-x-7-7-7-x-|-6-6-6-x---------|-4-4-4-x-4-4-4-x-|-2-2-2-x-2-2-2-x--|


  Cb7               Bb7               Ab7               Gb7
  E E E E E E E E   E E E E E E E E   E E E E E E E E   E E E E E E E E
|-7-7-7-x-7-7-7-x-|-6-6-6-x-6-6-6-x-|-4-4-4-x-4-4-4-x-|-2-2-2-x-2-2-2-x--|
|-7-7-7-x-7-7-7-x-|-6-6-6-x-6-6-6-x-|-4-4-4-x-4-4-4-x-|-2-2-2-x-2-2-2-x--|
|-8-8-8-x-8-8-8-x-|-7-7-7-x-7-7-7-x-|-5-5-5-x-5-5-5-x-|-3-3-3-x-3-3-3-x--|
|-7-7-7-x-7-7-7-x-|-6-6-6-x-6-6-6-x-|-4-4-4-x-4-4-4-x-|-2-2-2-x-2-2-2-x--|
|-9-9-9-x-9-9-9-x-|-8-8-8-x-8-8-8-x-|-6-6-6-x-6-6-6-x-|-4-4-4-x-4-4-4-x--|
|-7-7-7-x-7-7-7-x-|-6-6-6-x-6-6-6-x-|-4-4-4-x-4-4-4-x-|-2-2-2-x-2-2-2-x--|


  Cb7               Bb7     A7       Ab7              Gb7
  E E E E E E E E   E E E E E E Q    E E E E E E Q    E E E E E E Q
|-7-7-7-x-7-7-7-x-|-6-6-6-6-5------|-4-4-4-4-4------|-2-2-2-2-2-------|
|-7-7-7-x-7-7-7-x-|-6-6-6-6-5------|-4-4-4-4-4------|-2-2-2-2-2-------|
|-8-8-8-x-8-8-8-x-|-7-7-7-7-6------|-5-5-5-5-5------|-3-3-3-3-3-------|
|-7-7-7-x-7-7-7-x-|-6-6-6-6-5------|-4-4-4-4-4------|-2-2-2-2-2-------|
|-9-9-9-x-9-9-9-x-|-8-8-8-8-7------|-6-6-6-6-6------|-4-4-4-4-4-------|
|-7-7-7-x-7-7-7-x-|-6-6-6-6-5------|-4-4-4-4-4------|-2-2-2-2-2-------|


                                    Bridge
                                  Straight Q=112
  E7               Eb7               Fm              Bbm
  E E E E E E Q    E E E E E E Q     Q  E E E Q  E   Q  E E E Q  E
|----------------|----------------||-1--1-1-1-1--1-|-1--1-1-1-1--1--|
|-5-5-5-5-5------|-4-4-4-4-4------||-1--1-1-1-1--1-|-2--2-2-2-2--2--|
|-7-7-7-7-7------|-6-6-6-6-6------||-1--1-1-1-1--1-|-3--3-3-3-3--3--|
|-6-6-6-6-6------|-5-5-5-5-5------||-3--3-3-3-3--3-|-3--3-3-3-3--3--|
|-7-7-7-7-7------|-6-6-6-6-6------||-3--3-3-3-3--3-|-1--1-1-1-1--1--|
|----------------|----------------||-1--1-1-1-1--1-|----------------|


                                Shuffle Q=112(8=s8)
  Gb              Eb7             Ab7             Gb7
  Q  E E

Ill Be Waiting chords – Michael Franti & Spearhead

 This is the full album version. The radio edit clips the intro, the first part of pre-chorus 1, and condenses 
the outro. The C chord during the verses is actually "Csus4 C Csus4 C", but writing that in messes up the 
formatting of the lyrics.


CAPO 2
----------------------------------------
INTRO:
 G C 

VERSE 1:
 G 
The best things in life aren't things
         C 
They're living and breathing
 G 
The best things in life aren't things
         C 
They're something you can believe in

PRE-CHORUS 1:
       G 
Well, do you believe me
       C 
Well, do you believe me when I say
 D 
Tonight won’t last for long
 C 
And soon it will be gone
     G C 
But I won’t leave you alone, no, no

CHORUS:
              G 
Whenever you call me, whenever you need me
              Em 
Wherever you wander until you see me
         D C G 
I’ll be waiting, I’ll be waiting for you
              C 
For you, for you, for you

VERSE 2:
 G 
The best things in life aren't things
         C 
They're laughing and crying
 G 
The best things in life aren't things
         C 
They're frightened, but they’re still fighting

PRE-CHORUS 2:
       G 
Well, do you believe me
       C 
Well, do you believe me (yeah) when I say
 D 
Tonight won’t last for long
 C 
And soon it will be gone
     G C 
But I won’t leave you alone, no, no

CHORUS:
              G 
Whenever you call me, whenever you need me
              Em 
Wherever you wander until you see me
         D C G 
I’ll be waiting, I’ll be waiting for you
              C 
For you, for you, for you

BRIDGE:
 Am 
You said that you were leaving
          C 
But it’s alright (alright), it’s alright (alright)
 Am 
You said that you were sorry
          D 
But it’s alright (alright), yes, it’s alright (alright)

VERSE 3:
 G 
The best things in life aren't things
         C 
They're broken and bleeding
 G 
The best things in life aren't things
         C 
They’re chosen to believe in

CHORUS:
                 G 
So whenever you call me, whenever you need me
              Em 
Wherever you wander until you see me
         D C G 
I’ll be waiting, I’ll be waiting for you
              C 
For you, for you, for you

OUTRO:
            G                             
And I say, eee-ohh, eee-ohh, eee-ohh, eee-ohh, 
 G 
Eee-ohh, eee-ohh, eee-ohh, eee-ohh
 C 
Eee-ohh, eee-ohh, eee-ohh, eee-ohh, eee-ohh
        G 
I say, it’s alright (eee-ohh, eee-ohh, eee-ohh, eee-ohh),
 G 
it’s alright (eee-ohh, eee-ohh, eee-ohh, eee-ohh),
 C G 
It’s alright, it’s gonna be alright now

Corina Corina chords – Brooks & Dunn

 G 
Corina Corina where you been so long

        C G 
Corina Corina where you been so long

                D7 G 
I ain't had no loving since you've been gone



Well I love Corina tell the world I do

        C G 
I love Corina tell the world I do

                    D7 G 
Just a little more loving let your heart be true



Corina Corina where'd you stay last night

        C G 
Corina Corina where'd you stay last night

                D7 G 
Come home this morning the sun was shining bright


 
Corina Corina is it true what they say

        C G 
Corina Corina is it true what they say

                     D7 G 
That you're growing colder more and more everyday


 
Well I left Corina far across the sea

        C G 
I left Corina way across the sea

                       D7 G 
You wouldn't write no letters she wouldn't talk to me

 

Corina Corina be a pal of mine

        C G 
Corina Corina be a pal of mine

               D7 G 
Oh you got me walking just to keep from crying



Corina Corina where you been so long

        C G 
Corina Corina where you been so long

                D7 G 
I ain't had no loving since you've been gone



Corina Corina where you been so long

        C G 
Corina Corina where you been so long

                D7 G 
I ain't had no loving since you've been gone

View From Below Tabs – Angels & Airwaves

 ---------------------------------------------------------------------------------------------------------
                                Angels and Airwaves - View from Below
---------------------------------------------------------------------------------------------------------

Verse1
e|-------------6-------------------------------------------------------|    |---|
B|-----------7---7---7-5--54-------7-5-5-4-----------------------------|    |---|
G|---8-8-8-8-----------------4---8---------4-44-66/8-------44-66/8-----| 2x |-8-| -end of 2nd repeat
D|-----------------9-----------9--------------------6--44---------6-44-|    |---|
A|---------------------------------------------------------------------|    |---|
E|---------------------------------------------------------------------|    |---|

Chorus
e|--------------------------------------|  |------------------------------------------|    |----|
B|-------10----10--10------12-12-12-12--|  |------12------12---12-----10-----10---10--|all |-12-| -end of
G|-----9-----9----------11-11-11-11-11--|3x|---11------11-----------9------9----------| of |----|   2nd 
D|---7-----7-----7----9----9--9--9--9---|  |-9-------9-------9----7------7------7-----|this|----|  repeat
A|--------------------------------------|  |------------------------------------------| 2x |----|
E|--------------------------------------|  |------------------------------------------|    |----|


Verse2
e|-------------6------------------------------------------|
B|-----------7---7---7-5-5-4-------7-5-5-4----------------|
G|---8-8-8-8-----------------4---8---------4-4-6/8--------|
D|-----------------9-----------9------------------6--44---|
A|--------------------------------------------------------|
E|--------------------------------------------------------|

Chorus

Bridge Guitar1
e|--------------------------------------------------------------------------------------------------|
B|--------------------------------------------------------------------------------------------------|
G|------8----8----8----8---8----4---4---6---4---4------8----8----8----8----8----6---6--6---4---4----| 2x
D|---11---11---11---11---11---7---7---9---7---7-----11---11---11---11---11----9---9------7---7---7--|
A|--------------------------------------------------------------------------------------------------|
E|--------------------------------------------------------------------------------------------------|

Bridge Guitar2
e|---------------------------------------------------------------------------|
B|---------------------------------------------------------------------------|
G|---11-11-11-9-9-9-9-9-6-6-6-8-8-8-8-8--11-11-11-9-9-9-9-9-6-6-6-4-4-4-4-4--|
D|---------------------------------------------------------------------------|
A|---------------------------------------------------------------------------|
E|---------------------------------------------------------------------------|
                                                                                   all 2x
e|---------------------------------------------------------------------------|
B|---------------------------------------------------------------------------|
G|---11-11-11-9-9-9-9-9-6-6-6-8-8-8-8-8--9-9-9-9-9-9-9-9-6-6-6-4-4-6-4-------|
D|---------------------------------------------------------------------------|
A|---------------------------------------------------------------------------|
E|---------------------------------------------------------------------------|

Chorus again

That's all!!

Kiss On My List Tabs – Hall & Oates

 HALL & OATES - KISS ON MY LIST (Daryl Hall & Janna Allen)


: David Adamec
Standard Tuning:  E-A-D-G-B-e

  This is a tab of Richard Tetta’s slick take on the Hall & Oates
classic. You can check out the video and his use of a calypso-like
rhythm in his interpretation on YouTube. Let the chords ring out
as you play.


Capo on 3rd fret, fingering shown is relative to capo


  Intro & Chorus
e|-0---0-0---0-0---0---0--|-0---0-0---0-0---0--|-0-0-0--0-0--0-0-----|
B|-2---0-0---0-0---0---0--|-5---3-3---1-1---3--|-5-5-5--3-5--3-3-----|
G|-2---4-4---2-2---4---4--|-5---4-4---0-0---4--|-2-2-2--2-2--2-2-----|
D|-2---6-6---4-4---6---6--|-5---5-5---2-2---5--|-0-0-0--0-0--0-0-----|
A|------------------------|-----------3-3------|---------------------|
E|------------------------|--------------------|---------------------|

                (this last chord repeated about 16 times)
e|-0--0-0-0----0-----------------------------------------------------|
B|-5--3-3-3----0-----------------------------------------------------|
G|-2--2-2-2----6-----------------------------------------------------|
D|-0--2-2-2----7-----------------------------------------------------|
A|-------------------------------------------------------------------|
E|-------------------------------------------------------------------|


e|------0----0-0----------------------------0----0-0-----------------|
B|------5----5-5----------------------------5----5-5-----------------|
G|------5----5-5----------------------------5----5-5-----------------|
D|------5----5-5----------------------------5----5-5-----------------|
A|-------------------------------------------------------------------|
E|-------------------------------------------------------------------|
   My friends wonder why I call you all the time.


e|-------------------------------------------------------------------|
B|----------------3--3-----3----3-3----------------------------------|
G|----------------5--5-----5----5-5----------------------------------|
D|----------------3--3-----3----3-3----------------------------------|
A|----------------5--5-----5----5-5----------------------------------|
E|-------------------------------------------------------------------|
   What can I say?


                                                     (repeat ~ 16
                                                            times) 
e|-0------0-0---------------3-----3-3--------------0-----------------|
B|-1------1-1---------------3-----3-3--------------0-----------------|
G|-2------2-2---------------4-----4-4--------------6-----------------|
D|-3------3-3---------------5-----5-5--------------7-----------------|
A|-3------3-3---------------5-----5-5--------------------------------|
E|-------------------------------------------------------------------|
   I don’t feel the need to give such secrets away.


e|------0----0-0----------------------------0----0-0-----------------|
B|------5----5-5----------------------------5----5-5-----------------|
G|------5----5-5----------------------------5----5-5-----------------|
D|------5----5-5----------------------------5----5-5-----------------|
A|-------------------------------------------------------------------|
E|-------------------------------------------------------------------|
 You think maybe I need help, no I know I’m right.


e|-------------------------------------------------------------------|
B|----------------3--3-----3----3-3----------------------------------|
G|----------------5--5-----5----5-5----------------------------------|
D|----------------3--3-----3----3-3----------------------------------|
A|----------------5--5-----5----5-5----------------------------------|
E|-------------------------------------------------------------------|
   All right.



                                                     (repeat ~ 16
                                                            times) 
e|-0------0-0---------------3-----3-3--------------0-----------------|
B|-1------1-

Frameless Tabs – Hudson & Troop

 -------------------------------------------------------------------------------
                             FRAMELESS - Hudson & Troop
-------------------------------------------------------------------------------
:Azul


Tuning: Standard

The strumming pattern length is not completely accurate. 
Listen to the song to get it correct.
Explanation, lyrics and youtube link are at the end of the tabs.

Its a short and lovely song, hope you enjoy the tabs.
And bear with me on the messy way I wrote the tabs, it saved me a lot of copy and pasting.

Intro: 
         Dm
e|---------------------------------------------------------------------------|
B|-------3-------3-----------------------------------------------------------|
G|---2-------2---------------------------------------------------------------|
D|-0---0---0---0-------------------------------------------------------------|
A|---------------------------------------------------------------------------|
E|---------------------------------------------------------------------------|

Verse:

Part 1:
         Dm                     F
e|---------------------------------------------------------------------------|
B|-------3-------3-------------1-------1-------------------------------------|
G|---2-------2-------------2-------2-----------------------------------------|
D|-0---0---0---0---------3---3---3---3---------------------------------------|
A|---------------------------------------------------------------------------|
E|---------------------------------------------------------------------------|

Part 2:
          Dm                     F                 Bb
e|---------------------------------------------------------------------------|
B|--------3-------3-------------1-------1---------3-------3------------------|
G|---2-------2-------------2-------2----------3-------3----------------------|
D|-0---0---0---0---------3---3---3---3---------------------------------------|
A|------------------------------------------1---1---1---1--------------------|
E|---------------------------------------------------------------------------|

Part 3:
          C                  Dm
e|---------------------------------------------------------------------------|
B|-------1-------1-----------3-------3---------------------------------------|
G|---0-------0-----------2-------2-------------------------------------------|
D|---------------------0---0---0---0-----------------------------------------|
A|-3---3---3---3-------------------------------------------------------------|
E|---------------------------------------------------------------------------|


Bridge (Part between verses):
         Dm                    F
e|---------------------------------------------------------------------------|
B|-------3-------3-------------1-------1-------------------------------------|
G|---2-------2-------------2-------2-----------------------------------------|
D|-0---0---0---0---------3---3---3---3---------------------------------------|
A|---------------------------------------------------------------------------|
E|---------------------------------------------------------------------------|

Chorus:

(Prechorus)
         A                  Bb
e|---------------------------------------------------------------------------|
B|-------2-------2----------3-------3----------------------------------------|
G|---2-------2----------3-------3--------------------------------------------|
D|---------------------------------------------------------------------------|
A|-0---0---0---0------1---1---1---1------------------------------------------|
E|---------------------------------------------------------------------------|

(Starts singing here ->)
(Repeat this section 4 times for chorus)
         F                  A                  Bb
e|---------------------------------------------------------------------------|
B|-------1-------1----------2-------2----------3-------3---------------------|
G|---2-------2

Vestre Fængsel chords – Finn & Jacob

 Første vers

 Em C G D 
- - Hvis du bor i Vestre Fængsel,

 Em C G D 
- - skal din krop ku' bru's til lidt af hvert.

 Em G C G 
- På anden sal i Vestre Fængsel,

 Em B7 C D 
- - er det let at smugle noget ind.



Anden vers

 Em C G D 
- - For os der bor i Vestre Fængsel,

 Em C G D 
- - er det svært at få en låse smed.

 Em G C G 
- Man blir sku sær af Vestre Fængsel.

 Em B7 C D 
- - Vores liv er som en træmmem kalv.


Bridge:

 F Dm 
Vagterne de lurer.

 F Dm G    
De blir pisse sure.   A  H  A

 G 
De lyver og smuler.

 G G 
-    -    -    -

 F Dm       
På en pind i cellen. 

 F Dm G 
Som et dyr i fælden.

 G 
Fed hash i piber.

 D 
Solbrændt i striber.

 D 
Solbrændt i striber!



Tredje vers

 Em C G D 
- Så hvis du bor i Vestre Fængsel

 Em C G D 
- så er det slut med dobbelseng og bad.(ja det er sgu så)

 Em G C G 
- - Og du kender til kødets længsel.
 Em B7 C D 
- - Du skal spille Ludo med dig selv.


Fjerde vers / afslutning

 Em C G D 
- - På anden sal  i Vestre fængsel,

 Em C G D 
- - sidder vi og pipper på en sang.

Hundred Miles chords – Judah And The Lion

 Judah & the Lion - "Hundred Miles" 

 C F C F G C 
Bless the Lord oh my soul 
       F C F C F C 
Sing praise to Him and Him alone 
 C F C F G C 
Bless the Lord oh my soul 
       F C F C F C 
Sing praise with me you heavenly hosts 

 Am F C 
I can't help myself 
 Am F C 
There is no one else 
          Am F C 
Like you God 

 Am F C 
I could sing a song
 Am F C  
A hundred miles long 
         Am F C 
But it won't compare

 Am F C Am F G 
Hallelujah sing to the Lord 
 Am F C Am G C 
Hallelujah my soul rejoice

-------------------------------
http://www.judahandthelion.com/

Hjarter Dams Sista Sang chords – Lars Winnerback V3

 Please rate/comment/correct. =)


Intro: |  C F G C  |  C F G C  |

      C F G C  
Där elljusspåren ledde hem till middagstid.
       F G C  
Där allting var modernt runt sjuttisju.
      F G E F  
Där låghusen slutade och skogarna tog vid.
 G Am  
  Där bodde jag, där bodde du.
 G                 |  C F G C  |
  Där bodde jag & du.

        C F G C  
Inga jordskalv där vi bodde, ingen frös och ingen svalt.
           F G C  
men det skälvde när du rörde vid mig.
          F G E F  
Du var sjutton jag var sexton & jag skolkade från allt.
 G Am  
  Jag ville bara va med dig.
 G                       |  C F G C  |  C F G C  |
  Jag ville bara va med dig.

             C F G C  
Nu får jag höra att du lever då & då ifrån en vän.
           F G C  
Och det verkar som att allting är okej.
          F G E F  
Och jag undrar om du nå'n gång är tillbaks dit igen.
 G Am  
  Du kanske undrar över mig.
 G                       |  C F G C  |
  Du kanske undrar över mig.

          C F G C  
Ja, där låghusen slutade & skogarna tog vid,
      F G C  
där allt var tyst och stilla som på kort.
       F G E F  
där nätterna viskade om ett sporrande liv.
 G Am  
  Och när ingenting var gjort.
 G                       |  C F G C  |  C F G C  |
  Då när ingenting var gjort.

             C F G C  
Ja, det är lätt att tänka bakåt när förvirringen tar fart.
               F G C  
Och när jag känner så tänker jag på dig.
  F G E F  
Allt är så förgängligt, allting kan brisera snart.
 G Am 
  Men du är oförstörd för mig.
 G                     |  C F G C  |  C F G C  |
  Du är oförstörd för mig.

      C F G C  
Men tiden har sin rätt att förändras där den går.
             F G C  
och den är hos dig nu, och hos dig och din vän.
           F G E F  
Jag ska aldrig mera lägga mig med huvudet mot ditt hår.
 G Am  
  Aldrig älska dig igen.
 G                   |  C F G C  |  C F G C  |
  Aldrig älska dig igen.

          C F G C 
Men vid vägen längs bäcken som sakta leder hem.
          F G C  
Där är himlen lite närmre för mig.
          F G E F  

Spirit Desire Acoustic chords – Tigers Jaw

 I couldn't find these chords anywhere, so I decided to post them for everyone else.  Enjoy
-Ryan Emmert


So basically it is two variations of an open F chord which are...
      
      RHYTHM(listen to the song to be more accurate)

      x  x x x  x  x x x x      x  x x x  x  x x x 

e|--------------------------------------------------|
B|----2-----------------------0---------------------|
G|----2-----------------------2---------------------|
D|----0-----------------------0---------------------|
A|----0-----------------------0---------------------|
E|----2-----------------------2---------------------|


...followed by an A & A5 chord which are

      x  x x x  x  x x x      x  x x x  x  x x x 

e|--------------------------------------------------|
B|----2-----------------------0---------------------|
G|----2-----------------------2---------------------|
D|----2-----------------------2---------------------|
A|----0-----------------------0---------------------|
E|--------------------------------------------------|


Lyrics


Waiting for the sun, but I know that it'll come.

I feel reborn when you touch my arm.

Whole new view, feel better when I talk to you. 

I get scared with what I wear.

Even when you yell, I still love your belly,

It's true, it's true. 

Riding it through the night, straight through.


It still feels new when I talk to you.

I feel reborn when the sun gets warm.

It's hard but I feel better when I'm not inside.

I get scared you'll leave me soon, 

Even though we call each other every afternoon,

It's true, it's true.

It took a little time, but I, well I know you.


I'm not bored at all, you can call me when you want to call.

Oh, I'm not bored at all, you can call me when you wanna call.


I used to want to show you every single line,

Now it's hard for me to show you anything I write.

Know that I get nervous when we're not alone, 

I wait for you for hours when you're coming home.

When we started talking I got so excited,

I swear I tried to go out every single night.

Know that you will always be the one who's my... 


Spirit desire, spend my time,

Tell me that you're always gonna be in my life.


Oh, I'm not bored at all, you can call me when you wanna call.

All The Poor And Powerless chords – The Digital Age V3

 Intro 1 (x2):  E F#m7 E/G# A C#m7 B E/G# A 

Intro 2 (x2):
  E F#m7 E/G# A C#m7 B E/G# A 
Oh............, ah.........

Verse 1:
 E F#m7 E/G# A 
All the power and powerless
     C#m7 B E/G# A 
And all the lost and lonely
 E F#m7 E/G# A 
All the thieves will come confess
     C#m7 B E/G# A 
And know that You are holy
     C#m7 B E/G# E 
And know that You are holy

Chorus 1:
     C#m7 A E 
And all will sing out, hallelujah
     C#m7 A E 
And we will cry out, hallelujah
     C#m7 A E 
And all will sing out, hallelujah
     C#m7 A E Bsus B 
And we will cry out, hallelujah

Verse 2:
 E F#m7 E/G# A 
All the hearts who are content
     C#m7 B E/G# A 
And all who feel unworthy
 E F#m7 E/G# A 
All who weep with nothing left
      C#m7 B E/G# A 
Will know that You are holy
      C#m7 B E/G# E 
Will know that You are holy

Chorus 2:
     C#m7 A E 
And all will sing out, hallelujah
     C#m7 A E 
And we will cry out, hallelujah
     C#m7 A E 
And all will sing out, hallelujah
     C#m7 A E B E 
And we will cry out, hallelujah

Bridge 1:
 E B 
Shout it, go on and scream it from the mountains
                          C#m7 A 
Go on and tell it to the masses that He is God (x2)
 E B 
Shout it, go on and scream it from the mountains
                          C#m7 A 
Go on and tell it to the masses that He is God, yeah
 E B 
Shout it, go on and scream it from the mountains
                          C#m7 A 
Go on and tell it to the masses that He is God

Bridge 2 & Chorus 3(lyrics only):
 E B 
Shout it, go on and scream it from the mountains
                          C#m7 A E 
Go on and tell it to the masses that He is God

Chorus 3:
     E 
And we will sing out, hallelujah
     B 
And we will cry out, hallelujah
     C#m7 A 
And we will sing out, hallelujah

Tag:
  E F#m7 E/G# A C#m7 B E/G# A 
Oh............, ah.........
  E F#m7 E/G# A C#m7 B E/G# E 
Oh............, ah.........

Hey! Hope you enjoy the tab! I pray that this song will blow you away as much as 
it did to me. God bless!

Tyler
Psalm 121:1-2

In The Night Acoustic chords – Mike Mains And The Branches

 -----------------------------------------------------------------
     In The Night - Mike Mains & The Branches
-----------------------------------------------------------------
: StarrGuitarist
Email: Starrguitarist

Tuning: Standard ebgdaE


Intro:  C Am C Am 

Verse
 C Am C Am 
Say you, Say me, Goodbye to thee
 C Am 
My spirit left its cage tonight
         C Am C Am 
So I’m looking for a place in heavens light
      C Am C Am 
So wait for me, My sweet honeybee
 C Am 
Everything will be just fine
 C Am 
Push back the curtains and drink in the sun

Prechorus
 Am 
The house burning down and there’s no fire escape
 G 
Decide tonight if you will stay or if you’ll run away

Chorus
 Am F C G Am F C G 
Cause I love you more than ever And I need you here tonight
 Am F C G Am F C G 
If you find yourself lonely I will be with you in the night
 Am F C G C Am C Am 
I will be with you…



Verse
 C Am C Am 
Say you, Say me, I do not believe
 C Am 
Everything I as it seems
 C Am         
So stick a hook in my heart cast it into the streets
 C Am    
Then park the car Come in rescue me

Prechorus
 Am 
The house burning down and there’s no fire escape
 G 
Decide tonight if you will stay!

Chorus
 Am F C G Am F C G 
Cause I love you more than ever And I need you here tonight
 Am F C G Am F C G 
If you find yourself lonely I will be with you in the night
 Am F C G Am G C D E 
I will be with you No!

Bridge
 C 
Checking my pulse, am I still electric?
 Am Gsus 
Changing my clothes How did I get so far way from home?
 G 
I’m just a lost boy looking for home
 C 
I’ve got that Springsteen shoulder-shake
 Am 
I’ve got this pristine plan to make
 G 
And every fountain, and pen, and camera lens
 G G 
Tells stories of the thoughts I think 


Prechorus
 Am 
The house burning down and there’s no fire escape
 G 
Decide tonight if you will stay!

Chorus
 Am F C G Am F C G 
Cause I love you more than ever And I need you here tonight
 Am F C G Am F C G 
If you find yourself lonely I will be with you in the night
 Am F C G     
I will be with you No!

 Am F C G Am F C G 
Cause I love you more than ever And I need you here tonight
 Am F C G Am F C G 
If

Neighbour Neighbour Tabs by Violent Soho

 Neighbour neighbour – Violent Soho

[Intro and Verse 1]

e|------------------------8----|
B|----5----------9------10--10-|
G|-----------------------------|
D|---5----------9-----10-------|
A|-3----------7------8---------|
E|-----------------------------|


[Pre Chorus]

C(4)    E     Am    Dm         x4


[Chorus]

F (4)           C(2)  G(2)              
F (4)           C(2)  G(2)              
F (2) C(2)      Dm(2) Am(2)
F(4)


[Solo] (over pre-chorus chords)


e|------------------------|--------------------------|
B|--5-3-5b-----5-3-5---1--|--5-3-5b-----5-3-5--/13---|
G|---------2--------------|---------2----------------|
D|------------------------|--------------------------|
A|------------------------|--------------------------|
E|------------------------|--------------------------|


[Verse 2] (just using pre-chorus chords)

[Chorus]

[Solo 2]

e|---8--8--8--8--8--8--8--8-|--8-8-8-8-8-8-8-8-|
B|-10-10-10-10-10-10-10-10--|-9-9-9-9-9-9-9-9--|    x4
G|--------------------------|------------------|
D|--------------------------|------------------|
A|--------------------------|------------------|
E|--------------------------|------------------|

[Solo 3] over first two lines of chorus
[Chorus x2]

 
_____________________________________________
Requested by Tom & Geordie at Laugh and Learn

Ordinary Man chords – Eels V4

 -------------------------------------------------------------------------------
                              Eels - Ordinary Man
-------------------------------------------------------------------------------
Album : Hombre Lobo (2009)
Tempo : 75
 gwendal.mollo@orange.fr
: newg

Check my guitar pro tab for more.

Chords :
First  G  : x20003
 Csus2/B  : x2001x
Bridge (after the 2nd chorus), play in arpegio
 C/G  : xxx12.13.12
 Gm   : xxx12.12.10
 Am/E  : xxx9.10.8
 G/D  : xxx787
 F    : xxx10.10.8
 Em   : xxx987
 Dm   : xxx765
 G/B  : xxx433

Intro (before the C, there are two note: G & A):

 C G Am G F Em Dm G C G Am G 
Well, it's another warm day in the city of cold hearts
      F Em Dm G 
They all just play the part of who they are
         C G Am G 
And I'm here on my own, I'd rather be alone
      F Em Dm G 
Than try to be someone that I'm not

     F G 
And you seem like someone who could
   C Csus2/B Am G     
Appre--ciate     the fact that 
 F G C G Am G F Em Dm G 
I'm no ordinary man

     C G Am G 
And it's misunderstood what you've heard about me
   F Em Dm G 
I see why you would doubt me,   but know this
 C G Am G 
No one has the right until they've fought my fight
    F Em Dm G 
To understand just where I'm    coming from

     F G 
And it's that fight that brought me here today
   C Csus2/B Am G     
Exactly as      I am 
 F G C/G Gm Am/E G/D F Em Dm G/B 
no ordinary man

 C G Am G F Em Dm G  (Arpergio)

               C G Am G 
Well, it's another warm day in the city of cold hearts
    F Em Dm G 
It ends before it starts in their maze
     C G Am G 
But you, you're not like that, you know where it's at
     F Em Dm G 
The only rules you follow are your own


     F G 
And you seem like someone who could
   C Csus2/B Am G     
Appre--ciate     the fact that 
 F G C G Am G F Em Dm G 
I'm no ordinary man

 C G Am G F Em Dm G  x2
 C

Magic chords – Coldplay V6

  Kwint & Troy (from Sir Jupiter).


Artist : Coldplay
Song : Magic
Album : Ghost Stories [2014]


CapoII

Special chords used:
 G/B  [x20003]

INTRO:  C  - -  G/B  |  D  - -  G/B 

VERSE:

          C          
Call it magic
 G/B D 
Call it true
 G/B C 
I call it magic,
 G/B D 
When I'm with you
 G/B C 
And I just got broken
 G/B D 
Broken into two
 G/B C 
Still I call it magic,
 G/B D G/B C                                      
And I don't, And I don't, And I don't, And I don't
      G/B         
No I don't, it's true
    D 
I don't, No, I don't, No, I don't, No, I don't
              G/B 
Want anybody else but you
    C 
I don't, No I don't, No I don't, No I don't
      G/B 
No I don't, it's true
    D 
I don't, No I don't, No I don't, No I don't
              G/B 
Want anybody else but you


Ooh part:  C  - -  G/B  |  D  - -  G/B 


VERSE:

          C 
Call it magic
 G/B D 
Cut me into two
 G/B C 
And with all your magic,
 G/B D 
I disappear from view
 G/B C 
And I can't get over, 
 G/B D 
Can't get over you
 G/B C 
Still, I call it magic
 G/B D G/B 
Such a precious truth


CHORUS:

        C                                      
And I don't, And I don't, And I don't, And I don't
      G/B         
No I don't, it's true
    D 
I don't, No, I don't, No, I don't, No, I don't
              G/B 
Want anybody else but you
    C 
I don't, No I don't, No I don't, No I don't
      G/B 
No I don't, it's true
    D 
I don't, No I don't, No I don't, No I don't
              G/B 
Want anybody else but you


BRIDGE:

        C G/B D 
Wanna fall, I fall so far
          C G/B D 
I wanna fall, fall so hard
   G/B C 
I call it magic
        G/B D 
And I call it true
 G/B C G/B D 
Call it maaaaaa-aaa-gic

    G/B C G/B D 
Oououh       Oououh         x2


VERSE:

            G/B C 
And if you were to ask me
                 G/B D 
After all that we've been through
         G/B C 
"Still believe in magic?"
       G/B D 
Well yes, I do
    G/B C 
Oh yes, I do
 G/B D 
Yes, I do
    G/B C 
Oh yes, I do
    G/B D 
Of course I do

OUTRO:
 C  - -  G/B  |  D  - -  G/B 


If you have any suggestions/corrections, please let us know in the comments!

Cloud Factory chords – Sonata Arctica

 CLOUD FACTORY - Sonata Arctica
Acoustic version by sinForge xJp
Standard Tuning (EADGBe)
This is NOT based on an acoustic performance/recording!!


Recommended hord positions

   V E R S E  &  C H O R U S  |     K E Y   C H A N G E
e|--4--------2-7---2---0---4--|--3---1-6---4---1---1---6---------|
B|--4--------4-7---2---0---5--|--4---3-6---4---1---1---8---5-----|
G|--4---6----4-8---3---1---6--|--5---3-7---5---1---2---8---7-----|
D|--6---8----4-9---4---2---6--|--5---3-8---6---3---3---8---8-----|
A|--6---9----2-9---4---2---4--|--3---1-8---6---3---3---6---5-----|
E|--4---6------7---2---0------|------6-----4---1---1-------------|
    G#m F#/A# B F# E C#m Cm Bb Ab Fm F Eb Bb/D G#m                                                            
For every child there dawns the day   
 F#/A# B F# 
 They wonder from where they come  
     G#m                          
Why is the sky so pink tonight?
 F#/A# B                        
  How fast do clouds fly by?
            E F# G#m 
And so you come up with stories you tell 
          C#m B E 
Eyes are o - pen wide
          F# B G#m  
When you tell them about the sky
     F# B G#m  
And all that beneath resides 


 F# B E 
There is a factory clouds are made in
 F# B E  
They make 'em big and blue
     F# B E 
The factory eats you, it swallows you whole
    C#m G#m C#m G#m  
It fills you with conceit and never lets you leave
    F# B E   
If you ever dream at the end of the day
      F# B E  
That you´re gonna live as a free man
 F# B E 
There's no hook, no sinker, no line
     C#m G#m C#m G#m  
And you will never leave the cloud factory


 G#m F#/A# B F# 
If you join the same brigade   I   did when I was young
 G#m F#/A# B                     
You will never see beyond  the  skyline of this town


         E F# G#m 
Take my word, my son and run
            C#m B E 
While your dreams fly free
           F# B G#m 
Have them write my story down
      F# B G#m  
Like silence breaking sound 


 F# B E 
There is a factory clouds are made in
 F# B E  
They make 'em big and blue
     F# B E 
The factory eats you, it swallows you whole
    C#m G#m C#m G#m  
It fills you with conceit and never lets you leave
    F# B E   
If you ever dream at the end of the day
      F# B E  
That you´re gonna live as a free man
 F# B E 
There's no hook, no sinker, no line
     C#m G#m C#m G#m  
And you will never leave the cloud factory


 Bb ...  Eb ...  Ab ..
 Bb ...  Eb ...  Ab ..
 Bb ...  Eb ...  A