Tag: an

We Drag The Dead On Leashes Tabs – Being As An Ocean

 Track: We Drag The Dead On Leashes
Artist: Being As An Ocean
 How We Both Wondrously Perish (2014)
Tuning: Drop D (D A D G B e)

---

: Noah Maranesi
Website: Instagram.com/n04hz_ark

Simple, non-repeated version available at the bottom (after Outro)

---

Intro (0:05)
                                                x2
e|-----------------------------------------------|
B|-----------------------------------------------|
G|-----------------------------------------------|
D|--------4--------4--------4--------4--------0--|
A|-----5--------5--------5--------5--------7-----|
D|--5--------5--------5--------5--------7--------|


Verse (0:12)

    "We've all done things that we're ashamed of..."
                                                x3
e|-----------------------------------------------|
B|-----------------------------------------------|
G|-----------------------------------------------|
D|--------4--------4--------4--------4--------0--|
A|-----5--------5--------5--------5--------7-----|
D|--5--------5--------5--------5--------7--------|

e|-----------------------------------------------|
B|-----------------------------------------------|
G|-----------------------------------------------|
D|--------4--------4--------4--------4--------7--|
A|-----5--------5--------5--------5--------9-----|
D|--5--------5--------5--------5--------9--------|

  (Repeat Verse once again)


Post Verse (0:39)

e|------------------------------------------|
B|------------------------------------------|
G|------------------------------------------|
D|------------------------------------------|
A|------------------------------------------|
D|--(5)----(7)--(9)------(12)---(9)----(7)--|


Chorus (0:49) (Strum each chord noted twice)

    "And it seems we've been thrown into an endless cycle..."

e|-----------------------------------|
B|-----------------------------------|
G|-----------------------------------|
D|-----------------------------------|
A|--5-5-5-5-5-5-7-7-9-9-9-9-9-9-9-9--|
D|--5-5-5-5-5-5-7-7-9-9-9-9-9-9-9-9--|

e|----------------------------------|------------------|
B|----------------------------------|------------------|
G|----------------------------------|------------------|
D|----------------------------------|------------------|
A|--5-5-5-5-5-5-7-7-9-9-9-9-9-9-9-9-|-7-7-7-7-7-7-7-7--|
D|--5-5-5-5-5-5-7-7-9-9-9-9-9-9-9-9-|-7-7-7-7-7-7-7-7--|

    "Forget the things you hate in yourself..."

e|-----------------------------------|
B|-----------------------------------|
G|-----------------------------------|
D|-----------------------------------|
A|--5-5-5-5-5-5-7-7-9-9-9-9-9-9-9-9--|
D|--5-5-5-5-5-5-7-7-9-9-9-9-9-9-9-9--|

e|----------------------------------|------------------|
B|----------------------------------|------------------|
G|----------------------------------|------------------|
D|----------------------------------|------------------|
A|--5-5-5-5-5-5-7-7-9-9-9-9-9-9-9-9-|-7-7-7-7-7-7-7-7--|
D|--5-5-5-5-5-5-7-7-9-9-9-9-9-9-9-9-|-7-7-7-7-7-7-7-7--|


Re-Intro (1:22)
                                                x2
e|-----------------------------------------------|
B|-----------------------------------------------|
G|-----------------------------------------------|
D|--------4--------4--------4--------4--------0--|
A|-----5--------5--------5--------5--------7-----|
D|--5--------5--------5--------5--------7--------|

Verse (1:35) (Played twice)

    "We turn to others for some kind of safety..."
                                                x3
e|-----------------------------------------------|
B|-----------------------------------------------|
G|-----------------------------------------------|
D|--------4--------4--------4--------4--------0--|
A|-----5--------5--------5--------5--------7-----|
D|--5--------5--------5--------5--------7--------|

e|-----------------------------------------------|
B|-----------------------------------------------|
G|-----------------------------------------------|
D|-------

An Old Fashioned Christmas chords – The Statler Brothers

 An Old Fashioned Christmas:The Statler Brothers.
Album - Christmas Present - #42 on BB Hot Country
on MERCURY Records in 1985.

INTRO:  D A D 

#1.
 D G D 
These city streets seem cold and hard to me.
 G D A7 
Life here in the fast lane ain't my cup of tea.
 D G D 
I can't get in the spirit here it seems.
            G D A7             
And when I go to sleep at night I often have 
      D D7 
this dream.

CHORUS:
       G A7 D     
Of an old fashioned Christmas with presents 
 A7 D 
round the tree.
   Bm E7 G A7 
A fire softly burning and you up close to me.
      G A7 D        
With friends and family stopping by to help us 
 A7 D 
share the cheer.
        G D A7                        
For an old fashioned Christmas I'll be comin' 
           D 
home this year.


INTERLUDE:  D G D A D 

#2.
                     G D 
The city lights are fading out of sight.
     G D A7 
The snow is softly fallin' through the winter 

night.
 D G D 
Comin' home again feels so good.
     G D A7                  
And once again Christmas feels just like it 
 D D7 
should.

CHORUS:
               G A7 D 
Let's have an old fashioned Christmas with presents
 A7 D 
round the tree.
   Bm E7 G A7 
A fire softly burning and you up close to me.
      G A7 D        
With friends and family stopping by to help us 
 A7 D 
share the cheer.
        G D A7                        
For an old fashioned Christmas I'll be comin' 
           D 
home this year.

OUTRO:
               G D 
Let's have an old fashioned Christmas, I'll be 
 A D 
comin' home this year.



An eighties smash from Kraziekhat.


An Old Memory chords – Rhonda Vincent

 G C 
I thought I had driven you out of my mind

        G D7 
When I crossed that bridge on memory lane and burned it one last time

 G C 
I told myself it's over and I'm finally free

     D7 
But just when I thought I had buried your memory


It shows up just like a bad penny


 G C D7 
An old memory found its way back home again

 G C G D7 
Old feelings that I thought I'd lost have found their way back in

             G 
Like an old dog that you drop off just outside of town

 C 
Uninvited coming back anyhow

 G D7 G 
An old memory found its way back home again


                                   C 
I swept every room when I cleaned house

      G D7 
Tore up your old love letters and threw all of your pictures out

 G C 
But I can't throw away what I can't see

   D7 
I guess I fooled myself into believing forgetting you was gonna be easy


 G C D7 
An old memory found its way back home again

 G C G D7 
Old feelings that I thought I'd lost have found their way back in

             G 
Like an old dog that you drop off just outside of town

 C 
Uninvited coming back anyhow

 G D7 G 
An old memory found its way back home again


     C G 
Why can't I keep your memory away

      C A7 D7 
It's like a fire I can't put out a cold that I can't shake


 G C D7 
An old memory found its way back home again

 G C G D7 
Old feelings that I thought I'd lost have found their way back in

             G 
Like an old dog that you drop off just outside of town

 C 
Uninvited coming back anyhow

 G D7 G 
An old memory found its way back home again

  
 C G D7 G 
Yeah an old memory found it's way back home again

An All American Bluegrass Girl chords – Rhonda Vincent

 C 
Bill might be from Kentucky   Jimmy from Tennessee 

        F C G7 C 
I'm an all American bluegrass girl and proud as I can be


                                       F C 
Each day I greet the morning with the sounds of the radio

 F C G7 
Lester Flatt was singing on that Martha White show

     C F C 
Big K on the banjo Marty on the mandolin

        F C G7 C 
I'm an all American bluegrass girl and proud of where I've been


 F C 
Bill might be from Kentucky Jimmy from Tennessee

                                                         G7 
Though I might be from Missouri I'm as bluegrass as can be

   C F C 
A life of bluegrass music with friends and family

        F C G7 C 
I'm an all American bluegrass girl and proud as I can be

 
                                 F C 
All my life they told me you're pretty good for a girl

     F C G7 
Someday you'll play the Opry just like Sonny Bob and Earl

     C F C 
I'm livin' dreams I never dreamed mom and daddy they taught me right

          F C G7 C 
To be an all American bluegrass girl who's singin' here tonight

 
                                        F C 
Each day I greet the morning with the sounds of the radio

 F C G7 
Lester Flatt was singing on that Martha White show

     C F C 
Big K on the banjo Marty on the mandolin

        F C G7 C 
I'm an all American bluegrass girl and proud of where I've been


                                       F C 
Each day I greet the morning with the sounds of the radio

 F C G7 
Lester Flatt was singing on that Martha White show

     C F C 
Big K on the banjo Marty on the mandolin

        F C G7 C 
I'm an all American bluegrass girl and proud of where I've been

  
        F C G7 C 
I'm an all American bluegrass girl and proud as I can be

An Introduction chords – David Ramirez

 "An Introduction" by David Ramirez 
Capo 2

 Am Am F C            
I've stood in Roman cathedrals
 G Am 
Prayed in Southern Baptist chapels
      F C E F  
I've never heard a voice so I ain't paying a penny more
                           G Am 
Oh tell me where to find, tell me where to find the Lord

                                 F C 
They raised me on doughnuts and coffee
 G Am 
Under fluorescent lights we watched outdated movies
 F C E F 
It smelled like a hospital but no one was being cured
                           G Am  
Oh tell me where to find, tell me where to find the Lord

 Am F C G 
Tell me where to find, tell me where to find the Lord
    Am F C G 
Oh tell me where to find, tell me where to find the Lord  
         F C G F  
How the hell am I supposed to knock on Heaven if I can't even see the door?
                    G Am  
Tell me where to find the Lord

 Am F C 
So I traded in my pew for a bar stool
 G Am  
Trying to find redemption in the mind of the youth
      F C E F  
We'd sit tall with our cigarettes and disheveled uniforms
                  G Am  
Oh I never, no I never saw the Lord

 Am F C G 
Tell me where to find, tell me where to find the Lord
    Am F C G 
Oh tell me where to find, tell me where to find the Lord  
         F C G F  
How the hell am I supposed to knock on Heaven if I can't even see the door?
                                  G    
Hey won't you tell me where to find... 

          Dm Am  
Cause my biggest fear in the world
    C G  
Is introducing myself in the grave
             F Am  
Cause after all my years living free
   C F E Am  
I don't have much to say

                          F C  
Oh the longer I live the more I know I'm gonna die
         G Am  
And the more questions I have the less I want to try
 F C G F  
Time was winning so many times I stopped keeping score
                                  G Am  
Hey won't you tell me, oh please tell me where to find the Lord

                     F C G  
Oh tell me where to find the Lord
 Am F C G  
Tell me where to find the Lord
         F C G F  
How the Hell am I supposed to knock on Heaven if I can't even see the door?
                                  G Am  
Hey won't you tell me, oh please tell me where to find the Lord  

An Endless Summer chords – Tom Delonge

 : Fabio BlenderBR

 - Give your rating and help others users to find the best versions of the songs -


 - Intro

 B 


 - Verse

 B Em F#m 
Stop, help, and run
             Em B 
Like a magazine
                       Em F#m 
Sixteen on a wicked Friday
                   Em B 
Sex songs and gasoline
              Em F#m 
Down on the coast
               Em B 
I'll win her heart
                      Em F#m 
Sunsets and summer Sundays
                     Em  
Hands go up in her bra


 - Pre Chorus

 B 
She's so unforgettable
 B 
Sixteen and an all American


 - Chorus
 B C# D# 
Follow me close
                 B D# E B C# D# 
It's gonna be a long way to travel through life
                   B D# E  
And knowing that it's so illogical
 B C# D# 
Steady it goes
                    B D# E B C# D# 
It's going to be a hard one to see what you find
              B D# E  
I know that it's so illogical


 - Intro

 B 

 - Verse 2
 B Em F#m 
We are alive
             Em B 
Siting now awake
                      Em F#m 
Sixteen on a panic Monday
                         Em B 
Small dress on the interstate
          Em F#m 
Get so excited
            Em B 
Sound of a gun
                             Em F#m 
Ride out with the racing jacket
            Em 
On highway 101


 - Pre Chorus
 B 
She's so unforgettable
 B 
Sixteen and an all American


 - Chorus
 B C# D# 
Follow me close
                 B D# E B C# D# 
It's gonna be a long way to travel through life
                   B D# E  
And knowing that it's so illogical
 B C# D# 
Steady it goes
                    B D# E B C# D# 
It's going to be a hard one to see what you find
              B D# E  
I know that it's so illogical


 - Bridge
 B Em     (4x)


 - Chorus
 B C# D# 
Follow me close
                 B D# E B C# D# 
It's gonna be a long way to travel through life
                   B D# E  
And knowing that it's so illogical
 B C# D# 
Steady it goes
                    B D# E B C# D# 
It's going to be a hard one to see what you find
              B D# E  
I know that it's so illogical


 B C# D# 
Follow me close
                 B D# E B C# D# 
It's gonna be a long way if you gonna hide
                   B D# E  
And knowing that it's so illogical
 B C# D# 
Steady it goes
                    B D# E <s

An Endless Summer Tabs – Tom Delonge

 -------------------------------------------------------------------------------
                     An Endless Summer - Tom DeLonge
-------------------------------------------------------------------------------
: BassmanBrady13
 brady.sheppard@hotmail.com

Tuning: Standard (E A D G B E)


Intro:

NO GUITAR


Main Riff:

e|--------------------------------------|
B|--------------------------------------|
G|----11---9---8---------9---8----------|
D|-99----9---9---9-11-99---9---9-11-9-9-|
A|--------------------------------------|
E|--------------------------------------|


Verse: 

e|---------------|
B|---------------|
G|-4~------------|
D|-4~---2-4~---2-|
A|-2~---2-4~---2-|
E|------0-2~---0-|


Pre-Chorus:

NO GUITAR


Chorus:

(Listen for strumming pattern)

e|------------------------------|
B|------------------------------|
G|---4---6---8------6---8---9---|
D|---x---x---x------x---x---x---|
A|---2---4---6------4---6---7---|
E|------------------------------|


Bridge:

NO GUITAR


Song Order:

Intro 
Main Riff x4
Verse x4
Pre-Chorus
Chorus x4
Main Riff x4
Verse x4
Pre-Chorus
Chorus x4
Bridge 
Chorus x8


************************************

| /   slide up
| \   slide down
| h   hammer-on
| p   pull-off
| ~   vibrato
| +   harmonic
| x   Mute note
| b   Bend
| pb  Pre-bend
| br  Bend release
| pbr Pre-bend release
| brb Bend release bend

************************************

An Unkindness Of Ravens chords – Sanders Bohlke

 Capo 4

Intro
 Em C  x4 

Verse
 Em C 
God is weeping,
 Em C 
And the teeth are gnashing
 Em C 
And his heart is aching
 Em C 
And ever breaking
 Em C 
And blood is running
 Em C 
And hearts are beating
 Em C 
And the sky is filling
 Em C 
With heavy breathing

Chorus
 B C  x4

Verse
 Em C 
Bells are ringing
 Em C 
And sirens are calling
 Em C 
Those who were wary
 Em C 
Of the darkness falling
 Em C 
And heaven is sleeping
 Em C 
On both thunder and lightning
 Em C 
And the devil is laughing,
 Em C 
At the darkness falling

Chorus
 B C  X4

Bridge
 Em C  x8

 Em C 
God is weeping,
 Em C 
And the teeth are gnashing
 Em C 
An unkindness of ravens
 Em C 
Descends for the reaping.

An Dich chords – Luxuslaerm

 Intro:
 E  


Verse 1:

 E 
Ich hab lange überlegt,
 G#m C#m 
wie diese Zeilen klingen soll´n,
   B A 
ob das nicht irgendwie kitschig ist.

Verse 2:
  E 
Jetzt steh ich hier vor dir,
 G#m 
das muss jetzt einfach raus,
 C#m B A 
da musst du jetzt wohl durch,  das ist für dich...


Chorus:
                  E 
...für alles was du tust,
             G#m 
für alles was du gibst,
           C#m                       
dieses Lied geht raus an dich,
 B A 
an dich, an dich, an dich.

            E 
...für alles was du willst,
         G#m 
 für diesen Augenblick,
              C#m 
das hier geht raus an dich
      B A  
an dich, an dich, an dich.


Verse 3:
   E 
Ich wollt mal Danke sagen,
 G#m 
für jede Kleinigkeit,
 C#m B A 
fürs Feiern und fürs Zuhören.


Verse 4:
  E G#m     
Egal an welchen Ort,
    C#m 
du trägst mich meilenweit,
   B A 
und das hier ist für dich,  für dich...


(Chorus)

                       D A E D   
Das hier ist für dich.


Verse 5;
  E 
Ich hab lange überlegt,
 G#m 
wie diese Zeilen klingen,
 C#m B A     
doch das ist mir jetzt egal.

Chorus 2:
    E G#m 
Das hier ist für dich, für dich.
    C#m B A 
Das hier ist für dich, für dich, für dich.
Ja!


(Chorus)

                 E 
Das hier ist für dich…

Im An Albatraoz Tabs – Aronchupa

 -------------------------------------------------------------------------------
                             I`m an Albatraoz - AronChupa
-------------------------------------------------------------------------------
: SmoothPlayin
robin1@vr-web.de
Tuning:Standart

*******************************************************************************

THIS SONG WAS NOT WROTE FOR GUITAR! (its a techno song)

*******************************************************************************

Play Style: You can just adapt your play style(it`s up to you)

Recommended Play Style: staccato(all parts), accuracy on the sixteenth notes, you
                        don`t have to play all bass written here, don`t use a pick,
                        but your fingers , barre chord at 3rd bar is neccesary

*******************************************************************************

Structure:              Part 1 (for exact length you should listen to the song)
                        Part 2
                        Part 1 (2 times)
                        Part 3 (6 times)
                        Part 2 
                        Part 4
                        Part 3 (6 times)
                        Part 2
                        Part 5
                        Part 6
                        Part 3 (10 times, 4th isn`t played)
                        Part 7
                        Part 2
                        Part 8
                        Part 6
                        Part 1 (for exact length you should listen to the song)

*************************************

  ( one "-"  is one sixteenth note)

*************************************

Part 1 : Beginning & Bass Beat(acutally better played with bass):

pizzicato (right hand laid down on strings, kinda mute them)


e|----|--------------------------------|
B|----|--------------------------------| listen to the song to get the right
G|----|--------------------------------| number of repitions,
D|----|--------------------------------| use your right thumb
A|--3-|--33--33--33--33--33--33--33--33| for a better sound(not a pick)
E|----|--------------------------------|

*******************************************************************************

Part 2: I`m an Albatraoz


e|-3------------|
B|----64--3-----|
G|---------5----| (the 3 bass notes can also be removed)
D|--------------| 
A|-3---3---3----|
E|--------------|

*******************************************************************************

Part 3: Cm chord

e|------------------|
B|---4---4---4---4--|
G|---5---5---5---5--|   
D|---5---5---5---5--|
A|-3-------3--------|
E|-----3-------3----|

*******************************************************************************

Part 4: Beat version 1 (in all Beat parts the accuracy of the rhythm is quite important)

e|-----3---3---3---3---3--43-------|
B|------------6-------6-------4----|
G|-----------------------------5---|
D|---------------------------------|
A|-3---3---3--33---3--33--33--33---|
E|---------------------------------|


e|-----3---3---3---3---------------|
B|------------6-------64--3--------|
G|-------------------------5-------|
D|---------------------------------|
A|-3---3---3--33-------------------|
E|---------------------------------|

                    triole(634)

e|-----3---3---3---3----343-------|
B|------------6-------66-----4----|
G|----------------------------5---|
D|--------------------------------|
A|-3---3---3--33---3--33333--33---|
E|--------------------------------|


e|-----3---3---3---3---------------|
B|------------6-------64--3--------|
G|-------------------------5-------|
D|---------------------------------|
A|-3---3---3--33-------------------|
E|---------------------------------|

*******************************************************************************

Part 5: Beat version 2

e|-----3---3---3---3---3--43-------|
B|------------6---------------4----|
G|-----------------------------5---|
D|---------------------------------|
A|-3--

Ich Lass Fuer Dich Das Licht An chords – Revolverheld V3

 Artist: Revolverheld
Title: Ich lass fuer dich das Licht an

Chords by Deluke

Intro 2x

 B E G#m B E 
|----------------|----------------|----------------|----------------|
|----------------|----------------|----------------|----------------|
|----------------|----------------|----------------|----------------|
|----------------|----------------|----------------|----------------|
|----------------|----------------|----------------|----------------|
|----------------|----------------|----------------|----------------|
 1   2   3   4    1   2   3   4    1   2   3   4    1   2   3   4

 
 F# G#m 
Wenn wir nachts nach Hause gehen

     E B 
Die Lippen blau vom Rotwein
    
     F# G#m 
Und wir uns bis vorne an der Ecke

 E B 
Meine große Jacke teilen

 F# G#m 
Der Himmel wird schon morgenrot

      E B 
Doch du willst noch nicht schlafen

     F# G#m E 
Ich hole uns die alten Räder und wir fahren zum Hafen


Refrain
                       B  
Ich lass für dich das Licht an obwohl's mir zu hell ist

                 E     
Ich hör mit dir Platten, die ich nicht mag

                  G#m F#    
Ich bin für dich leise, wenn du zu laut bist

                    E   
Renn' für dich zum Kiosk, ob Nacht oder Tag

                       B  
Ich lass für dich das Licht an, obwohl's mir zu hell ist

                E 
Ich schaue mir Bands an, die ich nicht mag

              G#m F#sus4 
Ich gehe mit dir in die, schlimmsten Schnulzen

               E 
Ist mir alles egal, Hauptsache du bist da


Strophe 2
     F# G#m 
Ich würde meine Lieblingsplatten

   E B 
Sofort für dich verbrennen

     F# G#m 
Und wenn es für dich wichtig ist

          E B 
Bis nach Barcelona trampen

     F# G#m 
Die Morgenluft ist viel zu kalt

     E B 
Und ich werde langsam heiser

     F# G#m 
Ich seh' nur dich im Tunnelblick

         E                    
Und die Stadt wird langsam leiser


Refrain
                       B             
Ich lass für dich das Licht an obwohl's mir zu hell ist

                 E 
Ich hör mit dir Platten, die ich nicht mag

                  G#m F# 
Ich bin für dich leise, wenn du zu laut bist

                    E 
Renn' für dich zum Kiosk, ob Nacht oder Tag


                       B 
Ich lass für dich das Licht an, obwohl's mir zu hell ist

                E 
Ich schaue mir Bands an, die ich nicht mag

              G#m F#sus4 
Ich gehe mit dir in die, schlimmsten Schnulzen

               E 
Ist mir alles egal, Hauptsache du bist da


Bridge (triolisch) x4

  F# G#m E C#m7 F# 
|----------------|----------------|----------------|----------------|
|----------------|----------------|----------------|----------------|
|----------------|----------------|----------------|----------------|
|----------------|----------------|----------------|----------------|
|----------------|----------------|----------------|----------------|
|----------------|----------------|----------------|----------------|
 1   2   3   4    1   2   3   4    1   2   3   4    1   2   3   4


Refrain
                       B 
Ich lass für dich das Licht an obwohl's mir zu hell ist

                 E 
Ich hör mit dir Platten, die ich nicht mag

                  <

An Unusual Kiss chords – Melissa Etheridge

 AN UNUSUAL KISS -       Melissa Etheridge


Intro:
Em7i -  Em7  -  Em6  -  Em  -      Em7  -  Em6  -  Em       2x


       Em  /                        Em Em7 Em6  -  Em  -   Em7i -  Em7  -  Em6  -  Em 
It's      one-twentyfive A.M. I     think I've seen that look somewhere be -     fore
 Asus4  /
       one-twentyfive A.M.
    Asus4 Em7 Em6  -  Em  -   Em7i -  Em7  -  Em6  -  Em 
I       thought that you were headed for the       door
        C 
Then     something touched my skin
          B7 Em7 Em6  -  Em  -   Em7i -  Em7  -  Em6  -  Em 
I won't     ask you to leave here      any more


             Em7 Em7                           Em7i -  Em7  - 
 Em6  -  Em  -      Em7  -  Em6  -  Em 
Was it the      talk or the drink or the         dance that led to this
      Asus4 Asus4 Em7 Em6  -  Em  -   Em7i -  Em7  
-  Em6  -  Em 
Was        I so naive pre -       suming the inno -      cence
            C B7                      Em7i         Em6  -  Em  -   
Em7i -  Em7  -  Em6  -  Em 
Well it's     one-fiftyfour and it's     such an unusual          kiss


           A7sus4 
Ooohhoe -         whoo hooo
           Cadd9 
Ooohhoe -         whoo hooo Heea


Chorus:
 D 
   Come on come on come on
 Em Em/F# Em/G       Emadd4       Em E 
    O -        ver       and         o -      ver
 D 
   Come on come on come on
     Em Em/F# Em/G       Emadd4        Em  -  E 
We     all         wan -       ted         this
 D 
   Come on come on come on
 Em Em/F# Em/G       Emadd4      Em E 
    O -        ver       and         o -     ver
       C B7  /
It's     such an unusual          kiss


Inter:
Em7i -  Em7  -  Em6  -  Em  -      Em7  -  Em6  -  Em       2x


     Em Em Em7 Em6  -  Em  -   Em7i -  Em7  - 
 Em6  -  Em 
The     smell the taste the     touch is so brand       new
      Asus4 Asus4 Em7 Em6  -  Em  - 
  Em7i -  Em7  -  Em6  -  Em 
The         thrill of the eyes   that        capture this forbidden      view
       C B7                           Em7i      Em6  -  Em  -   
Em7i -  Em7  -  Em6  -  Em 
It's     two-fortyfive and you'll     have some explaining to        do


       Em Em7 Em7 Em6  -  Em  -   Em7i 
-  Em7  -  Em6  -  Em 
It's      three-seventeen A.M.      please let me into your       eyes
       Asus4 Asus4 Em7 Em6  -  Em  -  
 Em7i -  Em7  -  Em6  -  Em 
It's        four-twentythree and I        try to h

Song About An Angel Tabs by Sunny Day Real Estate

 From the Dairy Album.
Played in D tuning (regular tuned one step down)
This should be at least 95 % right. Please send any corrections to zzott@live.se



                       Intro

Riff 1
d|---------------------------------------------------------------|
A|-- <5>------------------<5>----------------<5>-------------<5>--|
F|--<5>------------------<5>----------------<5>----------<5>-----|
C|---x--------------------x------------------x-------------------| 
G|---------------------------------------------------------------|
D|---------------------------------------------------------------|


                       Verse

Riff 2
d|--3~-----3-----3---3/5---3~------3----3---3/5--|
A|--3~-------3-----3-------3~--------3----3------|
F|--2~---------------------2~--------------------|
C|-----------------------------------------------|
G|-----------------------------------------------|
D|-----------------------------------------------|

d|--3~-----3---3---3/5---3~------3---3---5/7-7---|
A|--3~-------3---3-------3~--------3---3---------|
F|--2~-------------------2~----------------------|
C|-----------------------------------------------|
G|-----------------------------------------------|
D|-----------------------------------------------|



                       Whoo--oh hoo-ooh~

d|--3-3-3-3-3-3-3-3--3-3-3-3-3-3-3-3--3-3-3-3-3-3-3-3--3-3-3-3-3-3-3-3--|
A|--3-3-3-3-3-3-3-3--3-3-3-3-3-3-3-3--3-3-3-3-3-3-3-3--3-3-3-3-3-3-3-3--|
F|--0-0-0-0-0-0-0-0--2-2-2-2-2-2-2-2--0-0-0-0-0-0-0-0--0-0-0-0-0-0-0-0--|
C|--0-0-0-0-0-0-0-0--0-0-0-0-0-0-0-0--0-0-0-0-0-0-0-0--0-0-0-0-0-0-0-0--|
G|--2-2-2-2-2-2-2-2-------------------3-3-3-3-3-3-3-3--2-2-2-2-2-2-2-2--|
D|--3-3-3-3-3-3-3-3------------------------------------3-3-3-3-3-3-3-3--|



                       WORDS!
Guitar 1
d|-------------------------------------------------------------------|
A|-------------------------------------------------------------------|
F|--0-0---0-0---0-0---0-0-0---9-9-16-16-16--14-14-14-14-17-17-17-17--|
C|--0-0---0-0---0-0---0-0-0---x-x-x--x--x---x--x--x--x--x--x--x--x---|
G|--2-2---2-2---2-2---2-2-2---7-7-14-14-14--12-12-12-12-15-15-15-15--|
D|--3-3---3-3---3-3---3-3-3------------------------------------------|

Guitar 2
d|---------------------------------------------------------------|
A|---------------------------------------------------------------|
F|--0-0---0-0---0-0---0-0-0---0-0-0-0-0-0-0-0--0-0-0-0-0-0-0-0---|
C|--0-0---0-0---0-0---0-0-0---2-2-2-2-2-2-2-2--2-2-2-2-2-2-2-2---|
G|--2-2---2-2---2-2---2-2-2---2-2-2-2-2-2-2-2--2-2-2-2-2-2-2-2---|
D|--3-3---3-3---3-3---3-3-3---0-0-0-0-0-0-0-0--0-0-0-0-0-0-0-0---|



                       "You're married to that..."

d|--3-3-3-3-3-3-3-3--3-3-3-3-3-3-3-3--3-3-3-3-3-3-3-3--3-3-3-3-3-3-3-3--|
A|--3-3-3-3-3-3-3-3--3-3-3-3-3-3-3-3--3-3-3-3-3-3-3-3--3-3-3-3-3-3-3-3--|
F|--0-0-0-0-0-0-0-0--2-2-2-2-2-2-2-2--0-0-0-0-0-0-0-0--0-0-0-0-0-0-0-0--|
C|--0-0-0-0-0-0-0-0--0-0-0-0-0-0-0-0--0-0-0-0-0-0-0-0--0-0-0-0-0-0-0-0--|
G|--2-2-2-2-2-2-2-2-------------------3-3-3-3-3-3-3-3--2-2-2-2-2-2-2-2--|
D|--3-3-3-3-3-3-3-3------------------------------------3-3-3-3-3-3-3-3--|



                       "Running blind..."

d|--3-3-3-3-3-3-3-3--3-3-3-3-3-3-3-3--3-3-3-3-3-3-3-3--3-3-3-3-3-3-3-3--|
A|--3-3-3-3-3-3-3-3--3-3-3-3-3-3-3-3--3-3-3-3-3-3-3-3--3-3-3-3-3-3-3-3--|
F|--0-0-0-0-0-0-0-0--2-2-2-2-2-2-2-2--0-0-0-0-0-0-0-0--0-0-0-0-0-0-0-0--|
C|--2-2-2-2-2-2-2-2--0-0-0-0-0-0-0-0--0-0-0-0-0-0-0-0--0-0-0-0-0-0-0-0--|
G|--2-2-2-2-2-2-2-2-------------------2-2-2-2-2-2-2-2--0-0-0-0-0-0-0-0--|
D|--0-0-0-0-0-0-0-0-------------------3-3-3-3-3-3-3-3--2-2-2-2-3-3-2-2--|



                       Post-chorus

d|--3----------------3-----------------3-------------------------|
A|--3----------------3-----------------3-------------------------|
F|--0----------------0-----------------2-------------------------|
C|--0----------------0-----------------0---------3-5-

Ich Lass Fur Dich Das Licht An chords – Revolverheld V3

 Revolverheld - Ich lass für dich das Licht an

 so please rate it and tell me if there are any errors in the tab

Tab by thearsonist
------------------

Capo 4th fret


Intro:  D  ,  Em  ,  C  ,  G 

Verse:
 D Em 
Wenn wir Nachts nach Hause gehen

 C G 
die Lippen blau vom Rotwein

 D Em 
und wir uns bis vorne an der Ecke

 C G 
meine große Jacke teilen

 D Em 
der Himmel wird schon morgenrot

 C G 
doch du willst noch nicht schlafen

 D Em 
ich hole uns die alten Räder

 C G 
und wir fahren zum Hafen


REF:

 Em 
Ich lass für dich das Licht an

 D 
obwohls mir zu hell ist

 C 
ich hör mit dir Platten

 G 
die ich nicht mag

 Em 
ich bin für dich leise

 D 
wenn du zu laut bist

 C 
renn für dich zum Kiosk

 G 
ob Nacht oder Tag

 D 
ich lass für dich das Licht an

 Em 
obwohls mir zu hell ist

 C 
ich schaue mir Bands an

 G 
die ich nicht mag

 D 
ich gehe mit dir in die

 Em 
schlimmsten Schnulzen

 C 
ist mir alles egal

 G 
hauptsache du bist da


 D , Em , C , G 


Verse:
 D Em 
ich würde meine Lieblingsplatten

 C G 
sofort für dich verbrennen

 D Em 
und wenn es für dich wichtig ist



 C G 
bis nach Barcelona trempen

 D Em 
die Morgenluft ist viel zu kalt 

 C G 
und ich werde langsam heiser

 D Em 
ich seh nur dich im Tunnelblick

 C G 
und die Stadt wird langsam leiser


Ref x2


 D Em 
Wenn wir Nachts nach Hause gehen

 C G 
die Lippen blau vom Rotwein

 D Em 
und wir uns bis vorne an der Ecke

 C G 
meine große Jacke teilen

An Ocean Apart chords – Julie Delpy

 Em7 A7M Em7 A7M 
Now we are together, sitting outside in the sunshine
     F/A E F/A E7 
But soon we'll be apart and soon it'll be night at noon
 Em7 A7M Em7 A7M 
Now things are fine, the clouds are far away up in the sky
     F/A E F/A E7 
But soon I'll be on a plane and soon you'll feel the cold rain
 C G Am F 
You promised to stay in touch when we're apart
 C G Am F 
You promised before I left that you'll always love me.
 C G Am F 
Time goes by and  people cry, everything goes too fast. 

(  C G Am F  )

 Em7 A7M Em7 A7M 
Now we have each other, enjoying each moment with one another
     F/A E F/A E7 
But soon I'll be miles away, and soon the phone will be our only way
 Em7 A7M Em7 A7M 
Now I'm in your arms, feeling pure love and warm
     F/A E F/A E7 
But soon I'll be alone, and soon your voice will change of tone

 C G Am F 
You promised we'll never brake up over the telephone
 C G Am F 
You said our love was stronger than an ocean apart
 C G Am F 
Time goes by and people lie, everything goes too fast.

(  C G Am F  )

 Em7 A7M Em7 A7M 
Let's not fool ourselves in vain, this far away trip will give us pain
   F/A C F/A E7 
We'll have to be so strong to keep our love from going wrong
 Em7 A7M Em7 A7M 
Distance will make us cold, even put our love on hold
     F/A C F/A E7 
But soon we'll meet again and soon it'll be bright at noon again


 C G Am F 
You promised not to loose faith in our love when I'm away
 C G Am F 
You promised so much to me but now you've left me
 C G Am F 
We go by and then we lie all this time we wasted
 C G Am F 
Time goes by, people lie everything goes too fast.
 C G Am F 
Time went by, and then we died, everything went too fast.
 Am C Am C 
Everything went too fast, Everything went too fast
 Am C Am C 
Everything went too fast, Everything went too fast.

A Means To An End Tabs by Joy Division

 Hello folks! Since there wasn't a tab available, I tried to create one for you!

It's my first tab so I hope you like it. :)


Song: A Means To An End.
Artist: Joy Division.
 Closer (1980).
Guitarist: Bernard Sumner.

Guitar intro (2x):

e-----------------------------------------------------------------------------|
B-----------------------------------------------------------------------------|
G-----------------7-------------7-------------7-------------------------------|
D--5--7--5--7--5----5--7--5--7----5--7--5--7----------------------------------|
A--------------------------------------------------0------2--2--2--2--2--2--2-|
E----------------------------------------------------0----0--0--0--0--0--0--0-|

A--2--2--2--2--2--2--2-|
E--0--0--0--0--0--0--0-|

Verse ( A legacy so far improved):

e-----------------------------------------------------------------------------|
B-----------------------------------------------------------------------------|
G-----------------------------------------------------------------------------|
D-----------------------------------------------------------------------------|
A--5--5--5--5--5--5--5--5--4--4--4--4--3--3--3--3--2--2--2--2--2--2--2--2--2--|
E--3--3--3--3--3--3--3--3--2--2--2--2--1--1--1--1--0--0--0--0--0--0--0--0--0--|

A--2--2--2--2--2--2--2-|
E--0--0--0--0--0--0--0-|

e-----------------------------------------------------------------------------|
B-----------------------------------------------------------------------------|
G-----------------7-------------7-------------7-------------------------------|
D--5--7--5--7--5----5--7--5--7----5--7--5--7----------------------------------|
A--------------------------------------------------0------2--2--2--2--2--2--2-|
E----------------------------------------------------0----0--0--0--0--0--0--0-|

A--2--2--2--2--2--2--2-|
E--0--0--0--0--0--0--0-|

Chorus (I always looked to you):

e-----------------------------------------------------------------------------|
B-----------------------------------------------------------------------------|
G-----------------7-------------7-------------7-------------------------------|
D--5--7--5--7--5----5--7--5--7----5--7--5--7----------------------------------|
A--------------------------------------------------0------2--2--2--2--2--2--2-|
E----------------------------------------------------0----0--0--0--0--0--0--0-|

A--2--2--2--2--2--2--2-|
E--0--0--0--0--0--0--0-|


e-----------------------------------------------------------------------------|
B-----------------------------------------------------------------------------|
G-----------------------------------------------------------------------------|
D-----------------------------------------------------------------------------|
A--5--5--5--5--5--5--5--5--4--4--4--4--3--3--3--3--2--2--2--2--2--2--2--2--2--|
E--3--3--3--3--3--3--3--3--2--2--2--2--1--1--1--1--0--0--0--0--0--0--0--0--0--|

A--2--2--2--2--2--2--2-|
E--0--0--0--0--0--0--0-|

e-----------------------------------------------------------------------------|
B-----------------------------------------------------------------------------|
G-----------------7-------------7-------------7-------------------------------|
D--5--7--5--7--5----5--7--5--7----5--7--5--7----------------------------------|
A--------------------------------------------------0------2--2--2--2--2--2--2-|
E----------------------------------------------------0----0--0--0--0--0--0--0-|

A--2--2--2--2--2--2--2-|
E--0--0--0--0--0--0--0-|

Bridge (I put my trust in you):

e-----------------------------------------------------------------------------|
B-----------------------------------------------------------------------------|
G-----------------------------------------------------------------------------|
D-----------------------14--14--14--14--14--14--14--14--14--12--12--12--12----|
A--2--2--2--2--2--2--2--14--14--14--14--14--14--1

Ich Lass Fur Dich Das Licht An chords – Revolverheld V2

 Ich Lass Fur Dich Das Licht-Revolverheld

Intro:                                          Capo:2.Bund

| A               | D9             | D9 D9/C# | D9/B     |

Strophe 1:
 E F#m 
Wenn wir Nachts nach Hause gehen
     D A 
die Lippen blau vom Rotwein
 E F#m 
und wir uns bis vorne an der Ecke
 D A 
meine große Jacke teilen
 E F#m 
der Himmel wird schon morgenrot
 D A 
doch du willst noch nicht schlafen
 E F#m 
ich hole uns die alten Räder
 D A 
und wir fahren zum Hafen

Refrain:
                       A 
Ich lass für dich das Licht an obwohls mir zu hell ist
                 D9 
ich hör mit dir Platten die ich nicht mag
                  F#m      -         E 
ich bin für dich leise wenn du zu laut bist
                   D 
renn für dich zum Kiosk ob Nacht oder Tag
                       A 
ich lass für dich das Licht an obwohls mir zu hell ist
                D9 
ich schaue mir Bands an die ich nicht mag
              F#m E 
ich gehe mit dir in die  schlimmsten Schnulzen
                D 
ist mir alles egal Hauptsache du bist da
Strophe 2:
     E F#m 
Ich würde meine Lieblingsplatten
    D A 
sofort für dich verbrennen
     E F#m 
Und wenn es für dich wichtig ist,
          D A 
bis nach Barcelona trampen
     E F#m 
Die Morgenluft ist viel zu kalt
      D A 
und ich werde langsam heiser
     E F#m 
Ich seh‘ nur dich im Tunnelblick
         D A 
und die Stadt wird langsam leiser


Refrain

Heute An Morgen Denken Und Gestern Vermissen chords – Ich Alexander

 Capo on 2nd fret

 A  Aadd4  Asus2 Dsus2  

Und sollte es dazu kommen,
dass ich irgendwann
nicht mehr aufstehen kann,
dann würde ich dich bitten,
mir zu helfen, wenn ich lieg'

Und angenomm' ich wäre gestern
erst hier angekomm'
könntest du sagen,
wo die Zuversicht blieb?

Und alles, was ich seh'
und alles was ich höre
es steht mit Kuli auf der Handfläche,
es kommt vor, dass ich vom Hang(?) breche

Keine Sorge, keine Sorge, keine Sorge,
ich würde dir doch alles, würde dir doch alles
keine Sorge, keine Sorge, keine Sorge,
ich würde dir doch alles, im Falle eines Falles

Gib mir doch endlich alles was ich brauche,
du weist ganz genau, dass ich nicht trinke und nicht rauche
Nimm mir doch endlich die Lasten von den Schultern
ich nehme auch deine und in kauf, dass ich weine

Und du gibst mehr als zu viel
Geld aus - und das mit Stil
Und ich denk immernoch an letzten Samstag
Geld aus - und das mit Stil

Und alles, was ich kauf
Und alles, was ich stehle
Bei 48 Euro liegt der Preis meine Seele

Und die Schuhe dann doch nich' bekomm'
mit zu viel Hoffnung den Tag einst begonn'
Und alles, was bleibt:
Du bläst Kaugummi zu Heißluftballons

Und meine Arme sie schweben wie Feuer
und meine Lippen sie glüh'n
Ich sehe in Träumen ein Ungeheuer
Und alle Blumen verblüh'n

Es bleibt nichts, es bleibt nichts, es bleibt nichts,
außer das Wissen der Zeit
es bleibt nichts, es bleibt nichts, es bleibt nichts,
außer die Ungewissheit

Ich Lass Fur Dich Das Licht An chords – Revolverheld

 
Intro:

 B E G#m F# E 

Verse 1:
 F# B 
Wenn wir Nachts nach Hause gehen
 E 
die Lippen blau vom Rotwein
 F# B 
und wir uns bis vorne an der Ecke 
 E 
meine große Jacke teilen 
 F# B 
der Himmel wird schon morgenrot 
 E 
doch du willst noch nicht schlafen
 F# B 
ich hole uns die alten Räder
 E 
und wir fahren zum Hafen

Refrain:

                       B 
Ich lass für dich das Licht an

obwohls mir zu hell ist
                 E 
ich hör mit dir Platten 

die ich nicht mag
 G#m 
ich bin für dich leise
         F# 
wenn du zu laut bist
 E 
renn für dich zum Kiosk

ob Nacht oder Tag
                       B 
ich lass für dich das Licht an

obwohls mir zu hell ist
                E 
ich schaue mir Bands an

die ich nicht mag
              G#m 
ich gehe mit dir in die 
             F# 
schlimmsten Schnulzen

ist mir alles egal
 E 
hauptsache du bist da

Verse 2
Refrain

Im An Outlaw chords – Casual Way

 Intro   E G E E E G G E B D B Bb D D B   (x2)

 E G E E G E 
I feel mad, yeah a little wild
 B D B B D B 
Do you know, I'm an outlaw
 E G E E G E 
Hey pretty, are you sure you'll see
 B D B B D B 
My black gloves, when I take your love

 G E 
I never wanna be glad and you sad
 G E 
Definitely, I just wanna be free

 E G E E G E 
I don't know, if you love me now
 B D B B D B 
Maybe so, even you say no
 E G E E G E 
You feel blue, when I'm not with you
 B D B B D B 
Could you be, just one sec' without me

 G E 
I never wanna be glad and you sad
 G E 
Definitely, I just wanna be free

 D B   (x4)

 E G E E G E 
I'm not sure, we could find a cure
     B D B B D B 
To not give up, to never break up
 E G E E G E 
Maybe one day, we could find a way
    B D B B D B 
To be happy, no girl I never lie

 G E 
I never wanna be glad and you sad
 G E 
Definitely, I just wanna be free

 E G E E E G G E B D B Bb D D B   (x2)
 G E   (x2)

 E G E E G E 
I feel mad, yeah a little wild
 B D B B D B 
Do you know, I'm an outlaw
 E G E E G E 
Hey pretty, are you sure you'll see
 B D B B D B 
My black gloves, when I take your love

 G E 
I never wanna be glad and you sad
 G E 
Definitely, I just wanna be free

 D B   (x4)