Tag: and

Eastside chords by Benny Blanco (Benjamin Levin) feat. Khalid and Halsey

[Verse 1]

F#m              E          A
When I was young, I fell in love
   D                                     E
We used to hold hands, man, that was enough (yeah)
F#m              E          A
Then we grew up, started to touch
D                                                    E
Used to kiss underneath the light on the back of the bus (yeah)
F#m                      E       A
Oh no, your daddy didn't like me much
       D                                           E
And he didn't believe me when I said you were the one
  F#m          E          A        D
Oh, every day she found a way out of the window to sneak out late


[Chorus]

                                F#m
She used to meet me on the Eastside
        E              A         D
In the city where the sun don't set
           E                F#m
And every day you know that we ride
                   E        A      D
Through the backstreets of a blue Corvette
               E             F#m     E
Baby, you know I just wanna leave tonight
A         D
We can go anywhere we want
       E           F#m               E
Drive down to the coast, jump in the seat
A             D
Just take my hand and come with me


[Post-Chorus]

F#m                E             A
We can do anything if we put our minds to it
D                                    E
Take your whole life then you put a line through it
F#m                        E           A
My love is yours if you're willing to take it
D                                        E
Give me your heart 'cause I ain't gonna break it
F#m              E        A
So come away, starting today
D                                         E
Start a new life, together in a different place
             F#m                     E       A
We know that love is how these ideas came to be
          D             E
So baby, run away with me


[Verse 2]

F#m            E        A               D
Seventeen and we got a dream to have a family
                            E
A house and everything in between
           F#m         E                A
And then, oh, suddenly we turned twenty-three
           D                                        E
Now we got pressure for taking our life more seriously
            F#m                  E         A
We got our dead-end jobs and got bills to pay
D                                   E
Have old friends and know our enemies
         F#m                 E          A
Now I-, I'm thinking back to when I was young
            D
Back to the day when I was falling in love

[Chorus]

                                F#m
He used to meet me on the Eastside
        E              A         D
In the city where the sun don't set
           E                F#m
And every day you know that we ride
                   E        A      D
Through the backstreets of a blue Corvette
               E             F#m     E
Baby, you know I just wanna leave tonight
A         D
We can go anywhere we want
       E           F#m               E
Drive down to the coast, jump in the seat
A             D
Just take my hand and come with me

Singing

[Post-Chorus]

F#m                E             A
We can do anything if we put our minds to it
D                                    E
Take your whole life then you put a line through it
F#m                        E           A
My love is yours if you're willing to take it
D                                        E
Give me your heart 'cause I ain't gonna break it
F#m              E        A
So come away, starting today
D                                         E
Start a new life, together in a different place
             F#m                     E       A
We know that love is how these ideas came to be
          D             E
So baby, run away with me


[Bridge]

F#m
Run away, now
A
Run away, now
D
Run away, now
F#m
Run away, now
A
Run away, now
D
Run away, now


[Outro]
                               F#m   E  A  D
He used to meet me on the Eastside
             E                  F#m  E  A  D
She used to meet me on the Eastside
             E                  F#m  E  A  D
He used to meet me on the Eastside
             E                  F#m
She used to meet me on the Eastside
        E              A         D
In the city where the sun don't set

Tranquility Base Hotel And Casino piano chords by Arctic Monkeys

[Intro]
Dm Am Dm G Dm Am E
Dm Am Dm G Dm Am E

[Verse 1]
Am           Dm      G               Dm          E    Am Dm
Jesus in the day spa filling out the information form
Am             Dm       G              Dm              E   Am Dm
Mama's got her head on, popping out to sing a protest song
Am             G            Dm                    E    Am Dm
I've been on a bender back to that prophetic esplanade
Am                   Dm         G          Dm                  E    
We'll ponder all the questions, but I just managed to miss the mark

[Chorus]
Am Dm G Dm        E
        Good afternoon
E
Tranquility Base Hotel and Casino
E
Mark speaking
E
Please tell me how may I direct your call?

[Verse 2]
Am           Dm        G              Dm                 E  Am Dm
This magical thinking, feels as if it really might catch on
Am                    Dm          G            Dm                E     Am Dm
The mother wants some answers, do you remember where it all went wrong
Am              Dm      G             Dm            E    Am Dm
Technological advances, really bloody get me in the mood
Am         Dm         G          Dm               
Pull me in close on a crisp eve, baby
Am           Dm        G           Dm  E             
Kiss me underneath the moon's side boob

[Chorus]
Am Dm G Dm        E
        Good afternoon
E
Tranquility Base Hotel and Casino
E
Mark speaking
E
Please tell me how may I direct your call?

[Bridge]
F G            A              Cmaj7
    And do you show your dark side?
F G              A            Cmaj7
    And wish you never left behind
F G                 A          Cmaj7
    Have you left a generation trying
F G          A       Cmaj7
    To figure it all out
Am Dm G Dm E Dm G F E

[Chorus]
Am Dm G Dm        E
        Good afternoon
E
Tranquility Base Hotel and Casino
E
Mark speaking
E
Please tell me how may I direct your call?

[Chorus]
Am Dm G Dm        E
        Good afternoon
E
Tranquility Base Hotel and Casino
E
Mark speaking
E
Please tell me how may I direct your call?

Young Dumb And Broke chords by Khalid V3

[Verse]
G                 C
  So you're still thinking of me
Em         D
  Just like I know you should
G           C                    Em                D
  I can not give you everything, you know I wish I could
G             C
  I'm so high at the moment
Em                 D
  I'm so caught up in this
G                              C
  Yeah, we're just young, dumb and broke
Em                      D
  But we still got love to give

[Chorus]
             G            C
  While we're young dumb, young-young dumb and broke
Em                             D
  Young dumb, Young-young dumb and broke
G                 C
  Young dumb, Young-young dumb and broke
Em                D
  Young dumb broke high school kids
G       C
  Yadadadadadadada
Em      D
  Yadadadadadada
G       C
  Yadadadadadadada
Em                D
  Young dumb broke high school kids

[Verse 2]
G                 C
  We have so much in common
Em         D
  We argue all the time
G                 C
  You always say I'm wrong
Em         D
  I'm pretty sure I'm right
G                 C
  What's fun about commitment?
Em         D
  When we have our life to live
G                              C
  Yeah, we're just young, dumb and broke
Em                      D
  But we still got love to give


[Chorus]
             G            C
  While we're young dumb, young-young dumb and broke
Em                             D
  Young dumb, Young-young dumb and broke
G                 C
  Young dumb, Young-young dumb and broke
Em                D
  Young dumb broke high school kids
G       C
  Yadadadadadadada
Em      D
  Yadadadadadada
G       C
  Yadadadadadadada
Em                D
  Young dumb broke high school kids

[Bridge] Improve this for me thank you!

Jump and we think,

Leave it all in the game of love, love

Run into sin,

Do it all in the name of fun, fun

I'm so high at the moment

I'm so caught up in this

Yeah, we're just young, dumb and broke

But we still got love to give


[Chorus]
             G            C
  While we're young dumb, young-young dumb and broke
Em                             D
  Young dumb, Young-young dumb and broke
G                 C
  Young dumb, Young-young dumb and broke
Em                D
  Young dumb broke high school kids
G       C
  Yadadadadadadada
Em      D
  Yadadadadadada
G       C
  Yadadadadadadada
Em                D
  Young dumb broke high school kids
G       C
  Yadadadadadadada
Em      D
  Yadadadadadada
G       C
  Yadadadadadadada
Em                D
  Young dumb broke high school kids

Blood Sweat And Tears acoustic chords by BTS

[Intro]
            Bm      A
nae pi ttam nunmul
            G
nae majimak chumeul
A           Bm   A
da gajyeoga ga~
G   A
ga~
            Bm      A
nae pi ttam nunmul
            G
nae chagaun sumeul
A           Bm   A
da gajyeoga ga
G   A
ga~
            Bm     A  G  A
nae pi ttam nunmul
Bm  A  G

[Rap 1]
    Bm      A
nae pi ttam nunmuldo
    G         A
nae mom maeum yeonghondo
      Bm                   A
neoui geosin geol jal algo isseo
      G
igeon nareul beolbatge hal jumun

[Rap 2]
             Bm
Peaches and cream
             A
Sweeter than sweet
          G
Chocolate cheeks
              A
And chocolate wings
          Bm                A
But neoui nalgaeneun akmaui geot
          G                A
neoui geu sweet apen bitter bitter

[Rap 3]
        Bm
Kiss me apado dwae
           A
eoseo nal joyeojwo
           G               A
deo isang apeul sudo eopge
         Bm                   A
Baby chwihaedo dwae ije neol deurikyeo
     G
mok gipsugi neoran wiseuki

[Pre-Chorus]
            Bm      A
nae pi ttam nunmul
            G
nae majimak chumeul
A           Bm   A
da gajyeoga ga~
G   A
ga~
            Bm      A
nae pi ttam nunmul
            G
nae chagaun sumeul
A           Bm   A
da gajyeoga ga
G
ga~

[Chorus 1]
                Bm     A
wonhae manhi manhi yah
       G   A
manhi manhi
                Bm     A
wonhae manhi manhi yah
        G
manhi manhi manhi manhi

[Chorus 2]
                Bm     A
wonhae manhi manhi yah
       G   A
manhi manhi
                Bm     A
wonhae manhi manhi yah
        G
manhi manhi manhi manhi

[Rap 4]
 Bm            A
apado dwae nal mukkeojwo
   G
naega domangchil su eopge
  Bm             A
kkwak jwigo nal heundeureojwo
   G
naega jeongsin mot charige

[Rap 5]
                Bm
Kiss me on the lips lips
        A
dulmanui bimil
        G
neoran gamoge jungdokdwae gipi
   Bm                  A
niga anin dareun saram seomgiji mothae
  G
almyeonseodo samkyeobeorin dogi deun seongbae

[Pre-Chorus]
            Bm      A
nae pi ttam nunmul
            G
nae majimak chumeul
A           Bm   A
da gajyeoga ga~
G   A
ga~
            Bm      A
nae pi ttam nunmul
            G
nae chagaun sumeul
A           Bm   A
da gajyeoga ga
G
ga~

[Chorus 1]
                Bm     A
wonhae manhi manhi yah
       G   A
manhi manhi
                Bm     A
wonhae manhi manhi yah
        G
manhi manhi manhi manhi

[Chorus 2]
                Bm     A
wonhae manhi manhi yah
       G   A
manhi manhi
                Bm     A
wonhae manhi manhi yah
        G
manhi manhi manhi manhi

[Bridge]
       Em                 Bm
nareul budeureopge jugyeojwo
      Em         A        Bm
neoui songillo nun gamgyeojwo
              Em
eochapi geobuhal sujocha eopseo
              D
deoneun domanggal sujocha eopseo
       G
niga neomu dalkomhae neomu dalkomhae
   A
neomu dalkomhaeseo

[Outro]
            Bm     A  G  A
nae pi ttam nunmul
Bm  A  G
            Bm     A  G  A
nae pi ttam nunmul
Bm  A  G

Drugs And Candy chords by All Time Low

Intro and verse riff:
e|-----------------|--------------|--------------|-------------|
B|-----------------|--------------|--------------|-------------|
G|-----------------|--------------|--------------|-------------|
D|--------8----10--|------8---10--|------8---10--|------8---7--|
A|--10-10---10-----|--6-6---6-----|--------------|--8-8---8----|
E|-----------------|--------------|--6-6---6-----|-------------|

[Intro]
Gm Eb Bb F
Gm Eb Bb F

[Verse 1]
Gm                     Eb                 Bb
  I can't take another hollow point conversation
     F               Gm
It's getting hard to fake
                     Eb            Bb
The sound of you, an outlasting vibration
   F                 Gm
Is something I can't shake

[Pre-Chorus 1]
              Eb           Bb
The sweetness of you on my tongue
               F                 Gm
I breathed you in, you filled my lungs
         Eb                Bb
A bitter taste, surrender, waste
        F
Another weakness

[Intrumental]
Gm

[Chorus 1]
Gm                  Eb
You and me are like drugs and candy
 Bb               F
(Drugs and candy) Ah-ah-ah-ah-ah
Gm                    Eb
Take one down for the young and easy
 Bb              F
(Young and easy) Ah-ah-ah-ah-ah
Gm                     Eb
  You get me out of my head
                         Bb
I fill the space in your bed
                        Cm
High on the beat of the breakdown (Breakdown)
       Gm                  Eb
'Cause you and me are like drugs and candy
 Bb                   C
(Drugs and candy) And I don't wanna give it up

[Intrumental]
Gm

[Verse 2]
Gm                   Eb          Bb
  You caught me in a moment of redemption
        F            Gm
There's nothing to explain
                  Eb           Bb
You had me on the edge of indiscretion
    F                 Gm
You said you feel the same

[Pre-Chorus 2]
              Eb           Bb
The sweetness of you on my tongue
               F                 Gm
I breathed you in, you filled my lungs
         Eb                Bb
A bitter taste, surrender, waste
        F
Another weakness

[Chorus 2]
Gm                  Eb
You and me are like drugs and candy
 Bb               F
(Drugs and candy) Ah-ah-ah-ah-ah
Gm                    Eb
Take one down for the young and easy
 Bb              F
(Young and easy) Ah-ah-ah-ah-ah
Gm                     Eb
  You get me out of my head
                         Bb
I fill the space in your bed
                        Cm
High on the beat of the breakdown (Breakdown)
       Gm                  Eb
'Cause you and me are like drugs and candy
 Bb                   C
(Drugs and candy) And I don't wanna give it up
Gm  Eb  Bb               C
       (Drugs and candy) Ah-ah-ah-ah-ah
Gm  Eb  Bb               C
       (Drugs and candy) Ah-ah-ah-ah-ah

[Intrumental]
Gm  Bb

[Bridge]
Gm                           Eb
  The sweetness of you on my tongue
                                 Bb
I breathed you in, you filled my lungs
                          Bb
A bitter taste, surrender waste
        F
Another weakness

[Chorus 3]
Gm                  Eb
You and me are like drugs and candy
 Bb               F
(Drugs and candy) Ah-ah-ah-ah-ah
Gm                    Eb
Take one down for the young and easy
 Bb           F
(Young and) Easy
Gm                     Eb
  You get me out of my head
                         Bb
I fill the space in your bed
                        Cm
High on the beat of the breakdown, breakdown
Gm                     Eb
   You and me are like drugs and candy
 Bb                  C
(Drugs and candy) No I don't wanna give it up
Gm  Eb  Bb               C
       (Drugs and candy) No I don't wanna give it up
Gm  Eb  Bb               C
       (Drugs and candy) Ah-ah-ah-ah-ah
Gm                     Eb
  You get me out of my head
                        Bb
High on the beat of the breakdown
    C
And I don't wanna give it up
Gm  Eb  Bb               C             Gm
       (Drugs and candy) Ah-ah-ah-ah-ah

Santa Monica Dream chords by Angus and Julia Stone

[Intro]

F - G - C

e|-------------------------------|----------------|------------------|
B|-------------------------------|---1-------1----|---1-------1------|
G|---0-------0--0--0--------0--0-|----------------|------------------|
D|------3-------------3----------|------2-------2-|------2-------2---| x4
A|-0---0------3--2--2--------2---|-3---3-------3--|-3---3-------3----|
E|-------------------------------|----------------|------------------|

F             G            C
Goodbye to my Santa Monica dream
F                   G                C
Fifteen kids in the backyard drinking wine
F             G            C
You tell me stories of the sea
F       G             C
And the ones you left behind
F              G             C
Goodbye to the roses on your street
F              G                 C
Goodbye to the paintings on your wall
F               G                   C
Goodbye to the children we'll never meet
F       G             C
And the ones we left behind
F       G             C
And the ones we left behind

[Chorus]
    C                 Am7
I'm somewhere, you're somewhere
    C                 Am7
I'm nowhere, you're nowhere
       C          G      C
You're somewhere, you're somewhere
        F        G     C
I could go there but I don't

[Verse]
F            G             C
Rob's in the kitchen making pizza
F            G             C
Somewhere down in Battery Park
F            G             C
I'm singing songs about the future
F            G             C
Wondering where you are
F            G             C
I could call you on the telephone
F            G             C
But do I really want to know?
F            G             C
You're making love now to the lady down the road
F            G             C
No I don't, I don't want to know


[Chorus]
    C                 Am7
I'm somewhere, you're somewhere
    C                 Am7
I'm nowhere, you're nowhere
       C          G      C
You're somewhere, you're somewhere
        F        G     C
I could go there but I don't

[Outro]
F            G             C
Goodbye to my Santa Monica dream
F            G             C
Fifteen kids in the backyard drinking wine
F            G             C
You will tell me stories of the sea
F            G             C
And the ones you left behind
F            G             C
And the ones we left behind

Exs And Ohs Piano Chords by Elle King

[Intro]

Em 


[Verse 1]

Em
Well, I had me a boy, turned him into a man
Em
I showed him all the things that he didn't understand
B7                        Em
Whoa, and then I let him go

Em
Now, there's one in California who's been cursing my name
Em
'Cause I found me a better lover in the UK
B7                              Em
Hey, hey, until I made my getaway


[Pre-Chorus]
(Muted Strings)

One, two, three, they gonna run back to me
'Cause I'm the best baby that they never gotta keep
One, two, three, they gonna run back to me
They always wanna come, but they never wanna leave


[Chorus]

G             D                Em
Ex's and the oh, oh, oh's they haunt me
B                G              D
Like ghosts they want me to make 'em o-o-oh
A               C
They won't let go
            Em
Ex's and oh's


[Verse 2]

Em
I had a summer lover down in New Orleans
Em
Kept him warm in the winter, left him frozen in the spring
B7                           Em
My, my, how the seasons go by

Em
I get high, and I love to get low
Em
So the hearts keep breaking, and the heads just roll
B7                                Em
You know that's how the story goes


[Pre-Chorus]
(Muted Strings)

One, two, three, they gonna run back to me
'Cause I'm the best baby that they never gotta keep
One, two, three, they gonna run back to me
They always wanna come, but they never wanna leave


[Chorus 2]

G             D                Em
Ex's and the oh, oh, oh's they haunt me
B                G              D
Like ghosts they want me to make 'em o-o-oh
A               C
They won't let go

   G             D                Em
My ex's and the oh, oh, oh's they haunt me
B                G              D
Like ghosts they want me to make 'em o-o-oh
A               C
They won't let go
            Em
Ex's and oh's

Em B7 Em
[Pre-Chorus]
Muted strings

One, two, three, they gonna run back to me
Coming over mountains and a-sailing over seas
One, two, three, they gonna run back to me
They always wanna come, but they never wanna leave


[Chorus]

   G             D                Em
My ex's and the oh, oh, oh's they haunt me
B                G              D
Like ghosts they want me to make 'em o-o-oh
A               C
They won't let go


G             D                Em
Ex's and the oh, oh, oh's they haunt me
B                G              D
Like ghosts they want me to make 'em o-o-oh
A               C
They won't let go
            Em
Ex's and oh's

Among The Oak And Ash Album Chords version 1 by Among The Oak and Ash

Among The Oak And Ash - Album (2009)


1.  Hiram Hubbard
2.  Peggy-O                             tabbed by I_came_to_rock
3.  Angel Gabriel                       tabbed by eldi13
4.  Shady Grove
5.  The Water Is Wide
6.  The Housewife's Lament
7.  Pretty Saro
8.  All The Pretty Little Horses
9.  Come All You Young And Tender Ladies
10. Joseph Hillström 1879-1915
11. Look Down That Lonesome Road
12. High, Low And Wide
13. Bigmouth Strikes Again



==================================================================


Track 1 - Hiram Hubbard



[Intro]
D

[Verse 1]
                                       G            D
Come all you friends and neighbours, a story I will tell
                                       G            D
Come all you friends and neighbours, a story I will tell
                                 G               D
Concerning Hiram Hubbard and the way in which he fell


[Verse 2]
                                         G             D
While travelling through this country in sorrow and distress
                                         G             D
While travelling through this country in sorrow and distress
                                 G                  D
The sheriff caught up to him and placed him under arrest 


[Verse 3]
                                              G       D
Hiram Hubbard was not guilty, I heard a great man, he said
                                              G       D
Hiram Hubbard was not guilty, I heard a great man, he said
                                           G      D
He was not in this country, he was sixteen miles away


[Verse 4]
                                           G      D
They lead him up the holler, they lead him up the hill
                                           G      D
They lead him up the holler, they lead him up the hill
                                        G         D
To a place of execution where he sat to write his will


[Verse 5]
                                                G    D
They wound the cords around him, they bound him to a tree
                                                G    D
They wound the cords around him, they bound him to a tree
                                            G     D
Nine shots ran through him and he died most bitterly


[Verse 6]
                                              G       D
Hiram Hubbard was not guilty, I heard a great man, he said
                                              G       D
Hiram Hubbard was not guilty, I heard a great man, he said
                                           G      D
He was not in this country, he was sixteen miles away



==================================================================


Track 2 - Peggy-O



Capo 5
Tuning Standard


(C)         (F)    (C)      (F)
As we rowed out To Fenarrio,
(Am)        (G)    (F)(x2)
As we rowed out To Fenarrio,
(Am)                (G)         (F)(x2)
Our captain fell in love,With a lady like a dove
(C)                 (Fx2*)(C)      (F)        
And he called her by name,Peggy-o

Won't you come with me Pretty Peggy-o?
Won't you come with me Pretty Peggy-o?
If you come with me, We'll cross the great, blue sea
Won't you marry me Pretty Peggy-o?

I cannot marry you, oh sailor, no
I cannot marry you, oh sailor, no
I cannot marry you, And cross the ocean blue
I cannot marry you, oh sailor, no

What would your mother say, Peggy-o?
What would your mother say, Pretty Peggy-o?
What would your mother say,If I told her you could stay?
What would your mother say, Peggy-o?


E|-0-0-0-0-0-0-0-0-1-1-1-1-1-1-1-1-----|
A|-1-1-1-1-1-1-1-1-1-1-1-1-1-1-1-1-----|
D|-------------------------------------|  x4
G|-------------------------------------|
B|-------------------------------------|
E|-------------------------------------|


For this gilded dove, Peggy-o,
And for this gilded dove, Pretty Peggy-o,
And for this gilded dove,
Our captain died for love


*(first verse through F x2, future verses x1)


==================================================================


Track 3 - Angel Gabriel




Among the Oak and Ash - Angel Gabriel
Capo on 7, standard tuning

Intro: (And plucking pattern)

    Dm          C              Dm          C
E|--------------------------|--------------------------|
B|--------1-----------0-----|--------1-----------0-----|
G|-----------2-----------0--|-----------2-----------0--|
D|-----2-----------0--------|-----2-----------0--------|
A|--0-----------------------|--0-----------------------|
E|--------------3-----------|--------------3-----------|
                                                 Oh my soul...

(plucking)
C      Dm        C        Dm           C
Oh my soul, my soul, I'm bound for to rest

(plucking)
  Dm                  C    Dm
In the arms of the angel Gabriel
C          Dm          C        Dm
And I'll climb up the hill and look to the west
C       Dm           C           Dm
I'm crossing over Jordan to the land
F                           C
And I'll sit me down in my old arm chair
  Dm      C            F
People, I will not be tired
             Dm        C    Dm               C
And though Satan may speak, I will take my ease
   Dm            C      Dm
As I warm myself up by the fire


(Chorus:)
           F              C
And I'll shout and I'll dance
          Dm   C  Dm            C
And I'll rise up early in the morning
Dm       C      Dm             C
I will rise and rub my sleepy eyes
Dm                  C             Dm
When Gabriel comes blowing on his horn


    Dm          C              Dm          C
E|--------------------------|--------------------------|
B|--------1-----------0-----|--------1-----------0-----|
G|-----------2-----------0--|-----------2-----------0--|
D|-----2-----------0--------|-----2-----------0--------|
A|--0-----------------------|--0-----------------------|
E|--------------3-----------|--------------3-----------|
                                                 Oh my soul...

C     Dm        C        Dm           C
Oh my soul, my soul, I'm bound for to rest
Dm               C           Dm
I'll rest just as sure as I am born
C          Dm           C        Dm
And I'll sing like a blackbird sittin' in its nest
Dm                  C             Dm
When Gabriel comes blowing on his horn
F                           C
And I'll throw my clothes upon the shore
   Dm      C F
New garments I will have to wear
          Dm        C    Dm               C
And I'll have new shoes and never get the blues
      Dm          C       Dm
The angels will come and curl my hair


(Chorus:)
           F              C
And I'll shout and I'll dance
          Dm   C  Dm            C
And I'll rise up early in the morning
Dm       C      Dm             C
I will rise and rub my sleepy eyes
Dm                  C             Dm
When Gabriel comes blowing on his horn


    Dm          C              Dm          C
E|--------------------------|--------------------------|--|
B|--------1-----------0-----|--------1-----------0-----|--|
G|-----------2-----------0--|-----------2-----------0--|--|
D|-----2-----------0--------|-----2-----------0--------|--|
A|--0-----------------------|--0-----------------------|--|
E|--------------3-----------|--------------3-----------|--|
                                                        I (<-- sing on downbeat)

(plucking)
Dm        C             Dm              C
I won't weep when it's time for me to leave

(plucking)
          Dm        C       Dm
I'll pack up my bandbox and go

(plucking)
C    Dm       C              Dm
Goodbye old friends, there isn't time to grieve

(plucking)
C     Dm           C         Dm
I'm moving up to glory very slow
Dm        F                  C
And I'll eat my meals three times a day
    Dm         C     F
You bet your life: I will not be late
          Dm           C       Dm              C
And I'll have lots of fun when all you people come
             Dm               C        Dm
'Cause I'm gonna take the tickets at the gate


(Chorus:)
           C  (One strum)
And I'll shout and I'll dance
G(pick-up) Dm   C  Dm            C
And I'll rise up early in the morning
Dm       C      Dm             C
I will rise and rub my sleepy eyes
Dm                  C             Dm      C
When Gabriel comes blowing on his horn
Dm                  C             Dm      C
When Gabriel comes blowing on his horn

(Single strums:)
Dm                  C             Dm
When Gabriel comes blowing on his horn


==================================================================


Track 4 - Shady Grove




[Intro]
Dm    C  Dm    C  Dm

[Chorus]
             C
Shady Grove, my little love
Dm
Shady Grove, I know
F            C
Shady Grove, my little love
                        Dm
I'm bound for the Shady Grove


[Verse 1]
               C
I wish I had a piece of thread
   Dm
As fine as I could sew
    F                C
I'd sew my true love to my side
                      Dm
And down the road I'd go


[Chorus]
             C
Shady Grove, my little love
Dm
Shady Grove, I know
F            C
Shady Grove, my little love
                        Dm
I'm bound for the Shady Grove


[Verse 2]
                   C
Cheeks as red as a blooming rose
Dm
Eyes of the deepest brown
    F                 C
You are the true love of my life
                       Dm
Stay till the sun goes down


[Chorus]
             C
Shady Grove, my little love
Dm
Shady Grove, I say
    F            C
Oh, Shady Grove, my little love
      Dm           C         Dm
Don't wait for the Judgement Day


[Instrumental]
Dm  C  Dm   C    Dm


[Verse 3]
             C
Wish I had a banjo string
Dm
Made of golden twine
F               C
Every tune that I would play
                       Dm
I'd wish that girl was mine


[Chorus]
             C
Shady Grove, my little love
Dm
Shady Grove, I know
F            C
Shady Grove, my little love
                        Dm
I'm bound for the Shady Grove


[Verse 4]
               C
And if I had a watch of gold
Dm
On a silver chain
    F                C
I'd count the hours 'til the day
                 Dm
I'd see my love again


[Chorus]
             C
Shady Grove, my little love
Dm
Shady Grove, I know
F            C
Shady Grove, my little love
                        Dm
I'm bound for the Shady Grove


[Chorus]
             C
Shady Grove, my little love
Dm
Shady Grove, I say
    F            C
Oh, Shady Grove, my little love
      Dm           C         Dm
Don't wait for the Judgement Day



==================================================================


Track 5 - The Water Is Wide


CAPO: 2nd Fret


## NOTE: ~ = Walk-Down from C to Am ##



[Intro]
C    F  C       F  C    F  C    F  C

[Chorus]
    F        C    F              C   
The water is wide, I can't cross over
       ~    Am  Dm          G 
And neither have I wings to fly
          Em  F               C    F
Give me a boat that can carry two
               C   F   G        C
And both shall row, my love and I


[Verse 1]
      F    C   F                  C   
There is a ship and she sails the sea
         ~   Am   Dm           G 
She's loaded deep, as deep can be
           Em  F                C    F
But not so deep as the love I'm in
           C  F  G       C
I know not how I sink or swim


[Chorus]
    F        C    F              C   
The water is wide, I can't cross over
       ~    Am  Dm          G 
And neither have I wings to fly
          Em  F               C    F
Give me a boat that can carry two
               C   F   G        C
And both shall row, my love and I


[Verse 2]
   F       C       F            C   
My love is handsome and love is fine
   ~ Am   Dm               G 
As a jewel when first it's new
               Em F          C     F
And love grows old and waxes cold
           C  F     G      C
And fades away like summer dew


[Chorus]
    F        C    F              C   
The water is wide, I can't cross over
       ~    Am  Dm          G 
And neither have I wings to fly
          Em  F               C    F
Give me a boat that can carry two
               C   F   G        Am   F
And both shall row, my love and I
               C   F   G        C
And both shall row, my love and I


[Outro]     (fade to end)
C    F  C

    F        C      F            C   
The water is wide,   oh, oh, oh, oh

I can't cross over
  F           C       F  C    F  C    F  C
I can't cross over



==================================================================


Track 6 - The Housewife's Lament




[Intro]
G    C  G    D  G    C  G    D

[Verse 1]
     G                        C            G
Last night in my dreams I was stationed forever
     Em                     D            G
On a far little rock in the midst of the sea
                            C           G
My one chance at life was a ceaseless endeavour
   Em                          D          G
To sweep off the waves as they swept over me


[Chorus]
                       C       G
Oh, life is a toil and love is trouble
                     D           G
Beauty will fade and riches will flee
                          C           G
Pleasures may dwindle and prices they double
                  D              G    C  G    D
And nothing is as nothing should be


[Verse 2]
        G                          C           G
There's too much of worriment that goes to the bonnet
        Em                       D           G
There's too much of ironing that goes to the shirt
                                  C              G
There's nothing that pays for the time you waste on it
        Em                         D           G
There's nothing that lasts but the trouble and dirt


[Chorus]
                       C       G
Oh, life is a toil and love is trouble
                     D           G
Beauty will fade and riches will flee
                          C           G
Pleasures may dwindle and prices they double
                  D              G    C  G    D
And nothing is as nothing should be


[Instrumental]
G    C  G  Em    D  G    C  G  Em    D  G


[Bridge]
   Em                           D
In March it's the mud, it's the slush in December
    C                     A7          D
The midsummer breezes are loaded with dust
   G                         D        
In fall the leaves litter, a muddy September
    Em                     D            G
The wallpaper rots and the candlesticks rust


[Chorus]
         N.C.
Oh, life is a toil and love is trouble
     
Beauty will fade and riches will flee
G                         C           G
Pleasures may dwindle and prices they double
                  D              G 
And nothing is as nothing should be


[Chorus]
                       C       G
Oh, life is a toil and love is trouble
                     D           G
Beauty will fade and riches will flee
                          C           G
Pleasures may dwindle and prices they double
                  D              G
And nothing is as nothing should be
              D              G
Nothing is as nothing should be



==================================================================


Track 7 - Pretty Saro


## NOTE: This song is sung a Capella, there are no chords to this version ##



[Verse 1]
 Down in some lone valley, in some lone place
 Where the wild birds eschew us all and notes to increase
 Farewell pretty Saro, I'll bid you adieu
 And think of you often wherever I go


[Verse 2]
Your parents don't like me, so I understand
They want a freeholder who has him some land
I cannot maintain you with silver and gold
Nor buy you the fine things a big house can hold


[Verse 3]
 If I were a merchant or could write a fine hand
 I'd write you a letter that you'd understand
 I'll follow this river wherever it flows
 And think of you often wherever I go
 And think of pretty Saro wherever I go



==================================================================


Track 8 - All The Pretty Little Horses



CAPO: 2nd Fret



[Verse 1]
Am          G
Hush-a-bye, don't you cry
F                      Am
Go to sleep you little baby
                G
When you awake, you shall have
F                     Am
All the pretty little horses


[Chorus]
C                F
Blacks and bays, dapples and greys
  C            G         F
A coach and six little horses


[Verse 2]
Am               G
Way down yonder, in the meadow
  F             Am
A poor boy is crying
                   G
Dry you eyes, it's no surprise
    F               Am
You can't save the dying


[Chorus]
C                F
Blacks and bays, dapples and greys
C       G             F
All the pretty little horses
C               F
Roans and duns, chestnut ones
C       G             F
All the pretty little horses
C       G             F
All the pretty little horses


[Instrumental]
Am    G  F    Am      G    C  F


[Bridge]
            C                    G
Look at you now, you've had your day
                 F
No room in this world to hide away
                 Am                  G
From me, turn to me, I'm calling you home
            F
Remember my love, you're never alone


[Chorus]
C                F
Blacks and bays, dapples and greys
C       G             F
All the pretty little horses
C               F
Roans and duns, chestnut ones
C       G             F
All the pretty little horses
C       G             F
All the pretty little horses
C       G             F
All the pretty little horses



==================================================================


Track 9 - Come All You Young And Tender Ladies



[Verse 1]
             G                C
Come all you young and tender ladies
                            G
Take warning how you court young men
                                  C
They're like a star on a summer's morning
                G
They'll first appear and then they're gone


[Verse 2]
                        C
If I'd a known before I courted
                           G
That love was such a cruel thing
                                     C
I'd have locked my heart in a box of golden
                G                C
And fastened it up with a silver chain



==================================================================


Track 10 - Joseph Hillström 1879-1915



[Intro]
F   G   F   G

[Verse 1]
                                    C         G
You came from New York harbour, Joe Hill, Joe Hill
                                 D
The skyline's crooked smile, Joe Hill, Joe Hill
G                            C         G
Warned you as a welcome, Joe Hill, Joe Hill
               D             C          G
You never ever could and you never ever will


[Verse 2]
                                   C         G
You found jobs here and there, Joe Hill, Joe Hill
                             D
And it wasn't easy work, Joe Hill, Joe Hill
        G                               C         G
But you can't break a man's dreams, Joe Hill, Joe Hill
               D             C          G
You never ever could and you never ever will


[Chorus]
         Dm           G
Struggle on, struggle on
         Dm           G
Struggle on, struggle on


[Verse 3]
                               C         G
You rode the rails awhile, Joe Hill, Joe Hill
                               D
And you got to California, Joe Hill, Joe Hill
      G                                      C         G
Where bosses tried to hide their crimes, Joe Hill, Joe Hill
                D              C          G
They never ever could and they never ever will


[Verse 4]
                                     C         G
Joined the workers of the world, Joe Hill, Joe Hill
                                         D
Sang your songs while picking limes, Joe Hill, Joe Hill
                G                             C         G
It's where they tried to bust the Unions, Joe Hill, Joe Hill
                    D              C          G
But they never ever could and they never ever will


[Chorus]
         Dm           G
Struggle on, struggle on
         Dm           G
Struggle on, struggle on


[Verse 5]
                          C         G
Salt Lake City, Utah, Joe Hill, Joe Hill
                                    D
They charged you with a murder, Joe Hill, Joe Hill
          G                               C         G
Said, the evidence proved their case, Joe Hill, Joe Hill
              D            C          G
It never ever could and it never ever will


[Verse 6]
                                     C         G
Judge and jury found you guilty, Joe Hill, Joe Hill
                                      D
Said, a death-walk waits for you, Joe Hill, Joe Hill
        G                            C         G
But the State couldn't kill you, Joe Hill, Joe Hill
              D            C          G
It never ever could and it never ever will
              D            C          G
It never ever could and it never ever will


[Outro]    (fade to end)
G



==================================================================


Track 11 - Look Down That Lonesome Road



[Intro]
D   G/D   D   G/D  (4x)  D

[Verse 1]
     G/D                D        G/D
Look up, look down that lonesome road
    D                G/D      D       G/D
Lay down your little head and cry, my love
D                G/D      D 
Hang your little head and cry


[Interlude]
D   G/D   D   G/D  (4x)  D


[Verse 2]
    G/D             D    G/D
The darkest night I ever saw
        D     G/D     D        G/D
Was the day I left my home, my love
    D     G/D     D 
The day I left my home


[Interlude]
D   G/D   D   G/D  (4x)  D


[Verse 3]
       G/D                  D         G/D
Love's few, estranged, must part some day
    D       G/D   D       G/D
And why not do it now, my love
D       G/D   D
Why not do it now


[Interlude]
D   G/D   D   G/D  (4x)  D


[Outro]
   G/D             D       G/D
Oh why, oh why, oh why, my love
D       G/D   D 
Why not do it now



==================================================================


Track 12 - High, Low And Wide


CAPO: 2nd Fret



[Verse 1]
C
I am but a shadow
F
Cast upon the road
    C
And we are all but strangers
F                     G
Bearing a heavy load


[Verse 2]
    C
And all these worldly things
   F
We won't need anymore
       C
You'll only take your place
F                       G
Standing on that shore


[Chorus]
Dm7           F
High, low and wide
       C                 G
That's just how big this ocean gets
Dm7               F
Stronger than the tide
       C                  G
That's just how hard this journey is
F                       C
You've got to cross it alone
F                       C
You've got to cross it alone
F                       G
You've got to cross it alone
N.C.          C
To get back home


[Verse 3]

The efforts of the sun 
    F
Are wasted on the rain
        C
There's nothing in this world
   F                    G
To take away your pain


[Chorus]
Dm7           F
High, low and wide
       C                 G
That's just how big this ocean gets
Dm7               F
Stronger than the tide
       C                  G
That's just how hard this journey is
F                       C
You've got to cross it alone
F                       C
You've got to cross it alone
F                       G
You've got to cross it alone
N.C.          Dm7
To get back home


{Instrumental]
Dm7   F   C   G   Dm7   F   C   G


[Bridge]
F                C
If you cross it alone
F                   C
Free then you shall be
         Am                D
From the troubles that you know
               F       N.C.         C
Oh, we're just sailing to get back home


[Outro]    (repeat 14x and fade to end)
F                       C
You've got to cross it alone



==================================================================


Track 13 - Bigmouth Strikes Again


CAPO: 4th Fret



[Intro]
Am  

[Verse 1]
      Am         C         Dm 
Ohoh, sweetness, sweetness I was only joking
Am   F      G
When I said I'd like to 
                  C       Dm  Am F G
Smash every tooth in your head 



[Verse 2]
Am         C          Dm
Sweetness, sweetness, I was only joking
Am   F      G 
When I said by rights you 
          C                  Dm  
Should be bludgeoned in your bed 

   
[Verse 3]
     F     G                Am
And now I know how Joan of Arc felt
C     Dm               Am      F G 
Now I know how Joan of Arc felt 
       Am                       C
As the flames rose to her Roman nose
        Dm      Am          F  G 
And her hearing-aid started to melt 


[Chorus]
Am        C  Dm  Am        F  G
Bigmouth, la ... bigmouth, la ... 
         Am
Bigmouth strikes again
                C                Dm
And I've got no right to take my place 
         Am         F G
With the Human race 


[Verse 4]
     F     G                Am
And now I know how Joan of Arc felt
C     Dm               Am      F G 
Now I know how Joan of Arc felt 
       Am                         C
As the flames rose to her roman nose
        Dm          Am      F  G 
And her Hearing Aid started to melt 


[Chorus]
Am        C  Dm  Am        F  G
Bigmouth, la ... bigmouth, la ... 
         Am
Bigmouth strikes again
                C                Dm
And I've got no right to take my place
         Am         F G
With the Human race 



==================================================================

A Lament Tabs – Wreck and Reference

 -------------------------------------------------------------------------------
                             A LAMENT - Wreck and Reference
-------------------------------------------------------------------------------
: Teddy Salad
Tuning: Standard

The rhythm is slightly tricky for the main melody. Play along with the track.

INTRO: Use delay on this part. This riff is also played one octave lower.
e|------------------------|------------------------|-------------------------|
B|------------------------|------------------------|-------------------------|
G|12-12-12-12-12-12-12-12-|12-12-12-12-15-15-15-10-|10-----------------------|
D|------------------------|------------------------|---13-10-10-10-10-10-13--|
A|------------------------|------------------------|-------------------------|
E|------------------------|------------------------|-------------------------|

e|------------------------|
B|------------------------|
G|------------------------|
D|13-13-13-13-13-13-13-13-|
A|------------------------|
E|------------------------|
There's a slight variation to this melody, played as:
e|------------------------|------------------------|-------------------------|
B|------------------------|------------------------|-------------------------|
G|12-12-12-12-12-12-12-12-|12-12-12-12-15-15-15-10-|10-----------------------|
D|------------------------|------------------------|---13-10-10-10-10-10-13--|
A|------------------------|------------------------|-------------------------|
E|------------------------|------------------------|-------------------------|

e|----------------------|
B|----------------------|
G|----------------------|
D|13-13-13-13-15-15-15--|
A|----------------------|
E|----------------------|

This new line comes in at 1:49.
e|------------------------|           ------------------------------|
B|------------------------|           ---------------13-13-13-13-13-|
G|12----------15-13-12----| x3, then: 12----------------------------|
D|---13-12-13----------15-|           ---13-12-13-15----------------|
A|------------------------|           ------------------------------|
E|------------------------|           ------------------------------|

VERSE:
"Breaking off in tiny rooms, suckling on the teat of space..."
  G5
e|---------------------------------------------------------------------------|
B|---------------------------------------------------------------------------|
G|12-------------------------------------------------------------------------|
D|12-------------------------------------------------------------------------|
A|10-------------------------------------------------------------------------|
E|---------------------------------------------------------------------------|

"In lucid fields I've come to pass, in the bottle I do see his face..."
  D#5
e|---------------------------------------------------------------------------|
B|---------------------------------------------------------------------------|
G|8--------------------------------------------------------------------------|
D|8--------------------------------------------------------------------------|
A|6--------------------------------------------------------------------------|
E|---------------------------------------------------------------------------|
Repeat these two chords for the rest of the verse.

OUTRO:
e|------------------------------------------------|
B|------------------------------------------------|
G|------------------------------------------------| x4
D|15-15-15-15-15-15-15-13-13-13-13-13-13-13-13-13-| 
A|------------------------------------------------|
E|------------------------------------------------|

"WWWAAAAAAAAAAAAAGHGHGHAAAAAAAAAAAGHGHAAAAWWWAHHHHUUUUUUUUGHGHGHHHAAAAAA"
  G5
e|---------------------------------------------------------------------------|
B|---------------------------------------------------------------------------|
G|12-------------------------------------------------------------------------|
D|

Comes And Goes In Waves chords – Greg Laswell Vsion 4

 2 Guitars at the beginning played together (Just play the first if you are alone...)
You can play the Riff until the *
and in the end from * as outro

Riff: First Guitar
e|-----0-------0---|-----1-------1---|-----0-------0---|-----------------|
H|---1---1---1---1-|---1---1---1---1-|---1---1---1---1-|-----3-------3---|
G|-2-------2-------|-2-------2-------|-0-------0-------|---4---4---4---4-|
D|-----------------|-----------------|-----------------|-5-------5-------|
A|-----------------|-----------------|-----------------|-----------------|
E|-----------------|-----------------|-----------------|-----------------|

Riff: Second Guitar
e|-----3-------3---|-----3-------3---|-----3-------3---|-----3-------3---|
H|---5-5-5---5-5-5-|---6-6-6---6-6-6-|---5-5-5---5-5-5-|---3-3-3---3-3-3-|
G|-----------------|-----------------|-----------------|-----------------|
D|-----------------|-----------------|-----------------|-----------------|
A|-----------------|-----------------|-----------------|-----------------|
E|-----------------|-----------------|-----------------|-----------------|

No Capo
Intro: 2x Riff

 Am F C               
This one's for the lonely, the one's that seek and find
             G Am     
Only to be let down time after time
 Am F C       
This one's for the torn down, the experts at the fall
                      G Am  
Come on friends, get up now, you're not alone at all


      F C G 
Oh oh oh, oh oh oh
 Am F C G 
Oh, oh oh oh, oh oh oh
*

 F 
And this part was for her
 Dm7 
And this part was for her
 F 
This part was for her
 Dm7 C 
Does she remember?


    Em F 
It comes and goes in waves, I


 Am F C          
This one's for the faithless, the ones that are surprised
                         G Am     
They're only where they are now regardless of their fight
                   F C       
This one's for believing if only for it's sake
                     G Am  
Come on friends get up now love is to be made


      F C G 
Oh oh oh, oh oh oh
 Am F C G 
Oh, oh oh oh, oh oh oh


 F 
And this part was for her
 Dm7 
And this part was for her
 F 
This part was for her
 Dm7 C 
Does she remember?


    Em F C 
It comes and goes in waves, I
    Em F C 
Am only led to wonder why
    Em F C 
It comes in goes in waves, I
    Em F 
Am only led to wonder why
 F          2x  Am F C G 
Why I, why I try


 Am F 
This is for the ones who stand
 C G 
For the ones who try again
 Am F 
For the ones who need a hand
 C G C 
For the ones who think they can


    Em F C 
It comes and goes in waves, I
    Em F C 
Am only led to wonder why
    Em F C 
It comes and goes in waves, I
    Em F F 
Am only led to wonder why
       Am F C G 
Why I try

*
 Am F C G 
Oh, oh oh oh, oh oh oh
 Am F C G 
Oh, oh oh oh, oh oh oh
 Am <s

Land Of Snow And Sorrow intro Tabs – Wintersun Vsion 1

 -------------------------------------------------------------------------------
                             Land of Snow and Sorrow - Wintersun
-------------------------------------------------------------------------------
: Kakku
Tuning: EADGBE (Normal)

All the way till first verse.

h   = Hammer on
p   = Pull off
/   = slide
(x) = To play or not to play..
~   = Awesome


e|---------------------------------------------------------------------------|
B|---------------------------------------------------------------------------|
G|---------------------------------------------------------------------------|
D|---------------------------------------------------------------------------|
A|-1--1-3-3-----1-1-3-4-4----1--4-6-6----1-1-6-8-8---------------------------|
E|---------------------------------------------------------------------------|

e|---------------------------------------------------------------------------|
B|---------------------------------------------------------------------------|
G|---------------------------------------------------------------------------|
D|---------------------------------------------------------------------------|
A|-1--1-3-3-----1-1-3-4-4----1--4-6-6----1-1-8-9-9---------------------------|
E|---------------------------------------------------------------------------|

e|---------------------------------------------------------------------------|
B|---------------------------------------------------------------------------|
G|---------------------------------------------------------------------------|
D|---------------------------------------------------------------------------|
A|-1--1-3-3-----1-1-3-4-4----1--4-6-6----1-1-6-8-8---------------------------|
E|---------------------------------------------------------------------------|

e|---------------------------------------------------------------------------|
B|---------------------------------------------------------------------------|
G|---------------------------------------------------------------------------|
D|---------------------------------------------------------------------------|
A|-1--1-3-3-----1-1-3-4-4----1--4-6-6----1-1-8-9-9---(1)---------------------|
E|---------------------------------------------------------------------------|


e|---------------------------------------------------------------------------|
B|---------------------------------------------------------------------------|
G|---------------------------------------------------------------------------|
D|-3h6-6----6p3-6----6-8-10----10s11-11-11----3h6-6----6-5-3----6-8-10-------|
A|---------------------------------------------------------------------------|
E|---------------------------------------------------------------------------|

e|---------------------------------------------------------------------------|
B|---------------------------------------------------------------------------|
G|-------------------------10-13-13---13-10-13---13-15-17---17-18-18b20------|
D|--11/13-13-13h16-16-15-----------------------------------------------------|
A|---------------------------------------------------------------------------|
E|---------------------------------------------------------------------------|

e|---------------------------------------------------------------------------|
B|----------------------------------------14-16-16~--------------------------|
G|-10-13-13---13-12h13p12-10---13-15-17--------------------------------------|
D|---------------------------------------------------------------------------|
A|---------------------------------------------------------------------------|
E|---------------------------------------------------------------------------|

\,,/ 

Repeat 3x:
_________________________________________________________________________________

e|---------------------------------------------------------------------------|
B|---------------------------------------------------------------------------|
G|-----------------

Steven Universe – Peace And Love On Planet Earth Tabs – Misc Cartoons

 -------------------------------------------------------------------------------
                             Peace & Love (On Planet Earth) - Steven Universe
-------------------------------------------------------------------------------

Provided lyrics are a rough guide.

Tuning: Standard

    Life...       love...         peace...        planet earth
e|8-----8---------7-----7---------7-----7---------5-----5---------|
B|8---------8-----8---------8-----5---------5-----5---------5-----|
G|9-----------9---9-----------9---5-----------9---5-----------5---|
D|----------------------------------------------------------------|
A|----------------------------------------------------------------|
E|----------------------------------------------------------------|

    Is there   anything...        Peace...        planet earth?
e|8-----8---------7-----7---------7-----7---------5-----5---------|
B|8---------8-----8---------8-----5---------5-----5---------5-----|
G|9-----------9---9-----------9---5-----------9---5-----------5---|
D|----------------------------------------------------------------|
A|----------------------------------------------------------------|
E|----------------------------------------------------------------|

    Come on...    Me,               the words...  key,
e|8-----8---------7---------------7-----7---------5---------------|
B|8---------8-----8---------------5---------5-----5---------------|
G|9-----------9---9---------------5-----------9---5---------------|
D|----------------------------------------------------------------|
A|----------------------------------------------------------------|
E|----------------------------------------------------------------|

    If...           if...           then...       me,
e|8-----8---------7-----7---------7-----7---------5---------------|
B|8---------8-----8---------8-----5---------5-----5---------------|
G|9-----------9---9-----------9---5-----------9---5---------------|
D|----------------------------------------------------------------|
A|----------------------------------------------------------------|
E|----------------------------------------------------------------|

    Life...       love...           Life...       love...  But using
e|8-----8---------7---------------7-----7---------5---------------|
B|8---------8-----8---------------5---------5-----5---------------|
G|9-----------9---9---------------5-----------9---5---------------|
D|----------------------------------------------------------------|
A|----------------------------------------------------------------|
E|----------------------------------------------------------------|

  mi fa mi mi fa  mi ti la    and peace...        planet earth,
e|8-----8---------7-----7---------7-----7---------5-----5---------|
B|8---------8-----8---------8-----5---------5-----5---------5-----|
G|9-----------9---9-----------9---5-----------9---5-----------5---|
D|----------------------------------------------------------------|
A|----------------------------------------------------------------|
E|----------------------------------------------------------------|
    Yes, yes, that's it...
e|8-----8---------7---------------7-----7---------5---------------|
B|8---------8-----8---------------5---------5-----5---------------|
G|9-----------9---9---------------5-----------9---5---------------|
D|----------------------------------------------------------------|
A|----------------------------------------------------------------|
E|----------------------------------------------------------------|

  You should write...                                   ...already
e|8-----8---------7-----7---------7-----7---------5-----5---------|
B|8---------8-----8---------8-----5---------5-----5---------5-----|
G|9-----------9---9-----------9---5-----------9---5-----------5---|
D|----------------------------------------------------------------|
A|----------------------------------------------------------------|
E|--------------------------------

Steadfast Loyal And True chords – Elvis Presley

 C G7 C 
Farewell, Royal High School
 F C 
We'll remember you
 G D Bm Em 
Dear Alma Ma-ter
       Am D G 
We're steadfast, loyal and true


 C G7 C 
As we go on-ward
 F C 
In the lives we lead
 G D Bm Em 
Your light will guide us
      Am D G 
Your motto is our creed


 G7 C 
We will look back fondly
 F E7 
At your ivy walls
   C E7 Am A7 
Recalling precious mo-ments
     D G 
Within your hallowed halls


     C G7 C 
Farewell, Royal High School
 F C 
We'll remember you
 C F C D 
Dear Alma Mater
       G7 C 
We're steadfast, loyal and true


(If you don´t like the Bm try G instead)

;o)

Heroes And Friends chords – Randy Travis Vsion 4

 G D7 G 
I ain't lived forever but I've lived enough
  
          Em C G D7 
And I've learned to be gentle and I've learned to be tough 
 
      Em C G C 
I've found only two things that last till the end 
 
 G D7 G 
One is your heroes the other your friends
  
  
      C G 
Your heroes will help you find good in yourself 
 
      D7 C G 
Your friends won't forsake you for somebody else 
 
         C G Em 
They'll both stand beside you through thick and through thin 
 
     G D7 G 
And that's how it goes with heroes and friends
 

                          D7 G 
I grew up with cowboys I watched on TV
  
    Em C G D7 
My friends and I sometimes pretended to be 
 
 Em C G C 
Years have gone by but now and again 
 
 G D7 G 
My heart rides the range with my heroes and friends
  
  
       C G 
Your heroes will help you find good in yourself 
 
      D7 C G 
Your friends won't forsake you for somebody else 
 
         C G Em 
They'll both stand beside you through thick and through thin 
 
     G D7 G 
And that's how it goes with heroes and friends 


      C G 
Your heroes will help you find good in yourself 
 
      D7 C G 
Your friends won't forsake you for somebody else
  
         C G Em 
They'll both stand beside you through thick and through thin 
 
     G D7 Em 
And that's how it goes with heroes and friends 

 
 G D7 C G 
And that's how it goes with heroes and friends

               

Black And White solo Tabs – Parquet Courts

 Black and White - Parquet Courts
   Sunbathing Animal (2015)
~~~~~~~~~~~~~~~~~~~~~~~~~~~~~~~~

All 3 Verses

"..bold strokes crack..."

e|---------------------|
B|---------------------|
G|---------------------|
D|---------------------|
A|--0~-----------------| let note ring out w/ feedback
E|---------------------|

"..I want something more than..."

e|-------------------------------------------|
B|-------------------------------------------|
G|-------------------------------------------|
D|--------5--4--2----------7--5--4--2~-------| let last note ring out w/ feedback 
A|--5--------------3--3\5--------------------|   (especially on the last verse)
E|-------------------------------------------|


What I could make from the solo;

Starts at about 1:55

e|--------------------------------|
B|--------------------------------|
G|--------------------------------|
D|--------------------------------|
A|--14----12----9---9\10-9/-7~----|
E|--------------------------------|

Shackles And Chains chords – Stonewall Jackson

 G C 
On a long lonesome journey I am going 

    D7 G 
Oh my sweet little darling don't cry

                                      C 
For in shackles and chains they will take me 

      D7 G 
To a prison to live till I die 

 
                                        C 
And each night through the bars I will gaze at the stars

    D7 G 
My dreams dear for you so in vain

                                    C 
A piece of stone I will use for my pillow 

           D7 G 
While I'm sleeping in shackles and chains

 
                                            C 
Put your arms through these bars once more darling

       D7 G 
Let me kiss those sweet lips I love best

                             C 
In sorrow they were my consolation 

     D7 G 
And in sadness my heaven of rest

Good Timin Man Tabs – Whitey Morgan and the 78s

 http://whiteymorgan.com

-------------------------------------------------------------------------------
        Good Timin' Man - Whitey Morgan and the 78's
-------------------------------------------------------------------------------
Tuning: Standard 


There aren't many tabs for this band on here, and I figured I try one. This is my first attempt at 
transcribing anything, so any suggestions are greatly appreciated. Thank you.

P.S. I have Am in the chorus, but I don't think it's what is played, but it's the only thing I could get
to sound even remotely close.


Intro:

    C                          F                        C
e|---------------------------------1-----------1------------------------------|
B|------1---1---------1---1----------1---1-------1---1------1---1-------------|
G|--------0---0---------0---0----x-----2-----2-----2----------0---0-----------|
D|----2-------------2----------3-----------3--------------2-------------------|
A|--3-------------3-------------------------------------3---------------------|
E|----------------------------------------------------------------------------|
    G           C
e|------3-------------------0-------------------------------------------------|
B|--------0---0-----1-------1-------------------------------------------------|
G|----------0-------------0-0-------------------------------------------------|
D|----0-----------2---0h2-----------------------------------------------------|
A|--------------3-------------------------------------------------------------|
E|--3-------------------------------------------------------------------------|

Verses:

Three nights in old Arizona 
    C                        F
e|-------------------------------1-----1---------1----------------------------|
B|------1---1-------1---1----------1-----1---------1--------------------------|
G|--------0---0-------0---0----2-----2---------------2------------------------|
D|----2-----------2----------3----------------3-------------------------------|
A|--3-----------3-------------------------------------------------------------|
E|----------------------------------------------------------------------------|

Gotta get me outta California
    C                        F
e|-------------------------------1------------1--------------------------------|
B|------1---1-------1---1----------1---1--------1---1--------------------------|
G|--------0---0-------0---0----2-----2------2-----2----------------------------|
D|----2-----------2----------3------------3------------------------------------|
A|--3-----------3--------------------------------------------------------------|
E|-----------------------------------------------------------------------------|

Yea she's        waitin' there for me
    C             G               C
e|--------------------3-------------------------------------------------------|
B|------1---1-----------0---0----------1---1----------------------------------|
G|--------0---0-----------0--------------0---0--------------------------------|
D|----2-------------0----------------2----------------------------------------|
A|--3------------------------------3------------------------------------------|
E|----------------3-----------------------------------------------------------|
   C                       G            C
e|------------------------------3--------------------0------------------------|
B|------1---1-------1---1---------0---0------1-------1------------------------|
G|--------0---0-------0---0---------0--------------0-0------------------------|
D|----2-----------2-----------0------------2---0h2----------------------------|
A|--3-----------3------------------------3------------------------------------|
E|--------------------------3-------------------------------------------------|

Feelin' wrong but I'll get right
    C                          F
e|-----------------------------1----1------------1------------------------------|
B|--1----1---1-------1---1-----1------1---1-------

Lets Face The Music And Dance chords – Ella Fitzgerald

 1. LET'S FACE THE MUSIC AND DANCE
 Fm Bbm6 Fm DbM7 C7 Fm 
 There may be trouble ahead
                                 Bbm6 Bbo7 
But while there's moonlight and music
     FM7 F9 
And love and romance
 Bb7 A7 AbM7 G7 GbM7 F 
  Let's face the music and    dance
 Fm Cm Db7 C7 Fm 
 Before the fiddlers have fled
 C7 Db7 G9 
 Before they ask us to pay the bill
     C7 FM7 BbM7 
And while we still have the chance
                Bbm7 F Eb9 F 
Let's face the music and dance

 Ab Bbm7 Eb7 
 Soon we'll be without the moon
           Ab Gm7 C9 
Humming a different tune and then

 Fm 
 There may be teardrops to shed
 Fm6 Bbm7 Bbo7 
 So while there's moonlight and music
     FM7 F9 
And love and romance
 BbM7 Bbm7 G9 C7b9 
 Let's face the music and dance, dance
 F9 G7 C7 F 
 Let's face the music and dance

  [pno solo]
 Ab Ab Bbm7 Eb7 Ab Gm7 C9 Fm 
 There may be teardrops to shed
 Fm6 Bbm7 Bbo7 
 So while there's moonlight and music
     FM7 F9 
And love and romance
 BbM7 Bbm7 G9 C7b9 
 Let's face the music and dance, dance
 F/C G7 C7 F 
 Let's face the music and dance
                  G9 C7 
So while there's moonlight and music
     F D7 
And love and romance
 G7 C7 F 
 Let's face the music and dance

 F Am/E Eb7 Db9 C7 F

Sunday Candy chords – Donnie Trumpet And The Social Experiment Vsion 4

 This riff is the same for the entire song. There are probably some minor differences between the verses and
chorus, but I've found this to be pretty accurate. The barre chord version sounds better than open chords 
in my opinion, but they open chords also work great if you're not as comfortable with barring. Enjoy!


Barre Chord Version
     Cmaj7 Cmaj7/B Am7 Gm7 C7 Fmaj7 C Dm7 G 
e |---x--------x-------5------3------3------0------0------5------3----|
B |---x--------x-------5------3------5------1------1------6------3----|
G |---9--------9-------5------3------3------2------0------5------4----|
D |---10-------10------5------3------5------3------2------7------5----|
A |---10-------10------7------5------3------0------3------5------5----|
E |---8--------7-------5------3------3------0------x------5------3----|

Open Chord Version
       C C/B Am7 Gm7 C7 Fmaj7 C Dm7 G 
e |---0--------0-------0------0------0------0------0------1------3----|
B |---1--------1-------1------3------1------1------1------1------0----|
G |---2--------0-------0------0------3------2------0------2------0----|
D |---0--------2-------2------3------2------3------2------0------0----|
A |---3--------2-------0------1------3------0------3------0------2----|
E |---x--------0-------0------3------0------0------x------x------3----|

NOTE: For open chord version, just replace all Cmaj7 with C and replace all Cmaj7/B with C/B.

----------------------------------------------------------------------------------------------

INTRO:
 Cmaj7 Cmaj7/B Am7 Gm7 C7 Fmaj7 C Dm7 G 

VERSE:
 Cmaj7 Cmaj7/B Am7 Gm7 
She could say in her voice, in her way that she love me
          C7 Fmaj7 C Dm7 
With her eyes, with her smile, with her belt, with her hands, with her money
          G 
I am the thesis of her prayers.
     Cmaj7 Cmaj7/B 
Her nieces and her nephews are just pieces of the layers,
      Am7 Gm7 C7 Fmaj7 
Only ones she love as much as me is Jesus Christ and Taylor.
                       C Dm7 
I got a future so I'm singing for my grandma
                           G Cmaj7 
You singing too, but your grandma ain't my grandma!   
                      Cmaj7/B            
Mine's is hand made, pan fried, sun dried
 Am7 Gm7 C7 
Southside, and beat the devil by a landslide.
 Fmaj7 C 
Praying with her hands tied, president of my fan club,
 Dm7 G 
Stand tall, something told me I should bring my butt to church!

HOOK/CHORUS(x2):
                   Cmaj7 
You gotta move it slow-ly,
 Cmaj7 Am7            
Take and eat my body like it's ho-ly.
 Gm7 C7 Fmaj7 
I've been waiting for you for the whole week,
 C Dm7 G 
I've been praying for you, you're my sun-day, can-dy.

BRIDGE:
 Cmaj7 Cmaj7/B Am7 Gm7 C7 
Come on in this house, cause it's gonna rain.
 Fmaj7 C Dm7 G     
Rain down Zion, it's gonna rain.
            Cmaj7 Cmaj7/B Am7 Gm7 C7 
You better come on in this house, cause it's gonna rain.
 Fmaj7 C Dm7 G 
Rain down Zion, it's gonna rain.

VERSE:
   

Hopeful chords – Bars And Melody Vsion 3

 -------------------------------------------------------------------------------
                           HOPEFUL - Bars and Melody
-------------------------------------------------------------------------------

Capo 3/4
Standard Tuning

* = Strum Once

Riff/Intro:

e|-------------------------------------|
B|----1----0----1-------5----8----1----|
G|---0----0----2-2-2---5----9----2-2-2-|
D|--2----0----2---2---5----9----2---2--|
A|-3----2----0-------3----7----0-------|
E|-------------------------------------|

Capo 3

[Verse 1]
        C G 
Please help me God, I feel so alone
     Am 
I'm just a kid, I can't take it on my own
      C G 
I've cried so many tears, yeah, writing this song
 Am 
Trying to fit in. Where do I belong?
   C G 
I wake up every day, don't wanna leave my home
    Am 
My mamma's askin' me why I'm always alone
     Dm Em 
Too scared to say, too scared to holler
 F *
I'm walking to school with sweat around my collar
     C G 
I'm just a kid, I don't want no stress
    Am 
My nerves are bad, my life's a mess
     C G 
The names you call me, they hurt real bad
   Am 
I want to tell my Mom

She's havin' trouble with my Dad
 C G 
  I feel so trapped, there's nowhere to turn
 Am 
Come to school

Don't wanna fight I wanna learn
  Dm 
So please mister Bully
      Em 
Tell me what I've done
     F *
You know I have no Dad

I'm livin' with my Mom


[Chorus]
            C G 
'Cause I'm hopeful, yes, I am
 Am 
Hopeful for today
           C G 
Take this music and use it
        Am 
Let it take you away
        C G 
And be hopeful, hopeful
     Am 
And He'll make a way
   Dm Em F 
I know it ain't easy but that's okay
         C 
Just be hopeful


[Verse 2]
                        G 
Why do you trip at the colour of my skin
     Am 
And whether I'm fat or whether I'm thin
     C G 
You call me loser, you call me a fool
   Am 
I ain't got a choice, I gotta go to school
   C G 
I wish I had an angel to stand by my side
     Am 
I'm shaking with fear, I'm so scared inside
 Dm Em 
Doesn't really matter if I ain't got the looks
            F *
Why do you always hurt me and destroy my books?


[Chorus]
            C G 
'Cause I'm hopeful, yes, I am
 Am 
Hopeful for today
           C G 
Take this music and use it
        Am 
Let it take you away
        C G 
And be hopeful, hopeful
     Am 
And He'll make a way
   Dm Em F 
I know it ain't easy but that's okay
         C *
Just be hopeful


[Verse]
                         G *
I give you all my money every single day
          Am *
I didn't ask to be born but now I have to pay
   C *                      G *
I ain't got no food, you take all I have
 Am *
When I give it to you, you search through my bags
   C G 
I wrote this song for you to see
    Am 
We could've been friends, yeah you and me
 Dm Em 
Mister bully, take a moment please
       F *
Every single day you bring me to my knees


Capo 4

[Chorus]
            C G 
'Cause I'm hopeful, yes, I am
 Am 
Hopeful for today
           C G