Tag: Angels

Angels Serenade chords – Hearts At War

    Artist: Hearts at War
                    http://www.heartsatwar.com/
                YT: http://www.youtube.com/user/DookiefiedOfficial
   Song: Angel's Serenade
                  From album "Nowhere Kids" (2015)
                  


!!! HALF-STEP DOWN TUNING !!!
Transpose -1 (half-step) to play In standard tuning.


Verse:
  D 
   Angels serenading
  Bm A 
   Every nerve vibrating and I
                    G 
   I don't dare to move

  D 
   Safe from a world of harm
  Bm 
   Back in my mother's arms
    A G 
   I feel her beating heart


Chorus:
  D Bm A 
   I'm one with the sun and the stars
        G D 
   And everything that we are
              Bm A 
   I feel it, I see it, I know
           G D 
   I must never let go


Verse:
  D 
   Chasing fireflies
  Bm 
   The mesmerizing lights
    A G 
   I'm drifting high as a kite

  D 
   Like a soothing lullaby
  Bm 
   Like a summer breeze in July
    A G 
   I'm carried by the divine


Chorus:
  D Bm A 
   I'm weightless, drifting astray
      G D 
   A thousand light years away
                 Bm A 
   The grace and the heavenly frame
           G                   
   I wish all could feel the same


Bridge:
         F#m 
   I'll tell you I've been there
              Bm 
   Where the stars are aligned
        A 
   Catapulted through dimensions
           G 
   Places no one could find

    F#m 
   Secret doors, hallways
             Bm 
   Reaching out with no end
      A 
   Embraced by the beauty

   Like a long lost friend


[ INSERT SOLO HERE ]   D Bm A    X2


Chorus:

   Chorus:
  D Bm A 
   I'm one with the sun and the stars
        G D 
   And everything that we are
              Bm A 
   I feel it, I see it, I know
           G D 
   I must never let go

                   Bm A 
   I'm weightless, drifting astray
      G D 
   A thousand light years away
                 Bm A 
   The grace and the heavenly frame
           G D 
   I wish all could feel the same

View From Below Tabs – Angels & Airwaves

 ---------------------------------------------------------------------------------------------------------
                                Angels and Airwaves - View from Below
---------------------------------------------------------------------------------------------------------

Verse1
e|-------------6-------------------------------------------------------|    |---|
B|-----------7---7---7-5--54-------7-5-5-4-----------------------------|    |---|
G|---8-8-8-8-----------------4---8---------4-44-66/8-------44-66/8-----| 2x |-8-| -end of 2nd repeat
D|-----------------9-----------9--------------------6--44---------6-44-|    |---|
A|---------------------------------------------------------------------|    |---|
E|---------------------------------------------------------------------|    |---|

Chorus
e|--------------------------------------|  |------------------------------------------|    |----|
B|-------10----10--10------12-12-12-12--|  |------12------12---12-----10-----10---10--|all |-12-| -end of
G|-----9-----9----------11-11-11-11-11--|3x|---11------11-----------9------9----------| of |----|   2nd 
D|---7-----7-----7----9----9--9--9--9---|  |-9-------9-------9----7------7------7-----|this|----|  repeat
A|--------------------------------------|  |------------------------------------------| 2x |----|
E|--------------------------------------|  |------------------------------------------|    |----|


Verse2
e|-------------6------------------------------------------|
B|-----------7---7---7-5-5-4-------7-5-5-4----------------|
G|---8-8-8-8-----------------4---8---------4-4-6/8--------|
D|-----------------9-----------9------------------6--44---|
A|--------------------------------------------------------|
E|--------------------------------------------------------|

Chorus

Bridge Guitar1
e|--------------------------------------------------------------------------------------------------|
B|--------------------------------------------------------------------------------------------------|
G|------8----8----8----8---8----4---4---6---4---4------8----8----8----8----8----6---6--6---4---4----| 2x
D|---11---11---11---11---11---7---7---9---7---7-----11---11---11---11---11----9---9------7---7---7--|
A|--------------------------------------------------------------------------------------------------|
E|--------------------------------------------------------------------------------------------------|

Bridge Guitar2
e|---------------------------------------------------------------------------|
B|---------------------------------------------------------------------------|
G|---11-11-11-9-9-9-9-9-6-6-6-8-8-8-8-8--11-11-11-9-9-9-9-9-6-6-6-4-4-4-4-4--|
D|---------------------------------------------------------------------------|
A|---------------------------------------------------------------------------|
E|---------------------------------------------------------------------------|
                                                                                   all 2x
e|---------------------------------------------------------------------------|
B|---------------------------------------------------------------------------|
G|---11-11-11-9-9-9-9-9-6-6-6-8-8-8-8-8--9-9-9-9-9-9-9-9-6-6-6-4-4-6-4-------|
D|---------------------------------------------------------------------------|
A|---------------------------------------------------------------------------|
E|---------------------------------------------------------------------------|

Chorus again

That's all!!

Tremors Tabs – Angels And Airwaves

 -------------------------------------------------------------------------------
                            Angels & Airwaves - Tremors
-------------------------------------------------------------------------------
: Aleksander Vedom (alexv182)
 alexxvedom

Tuning: standard

Main riff (intro, verse, pre-chorus, fill)
e|-8-8-10-10-8-|
B|-------------|
G|-------------|
D|-------------|
A|-------------|
E|-------------|

Pre-chorus is the same as main riff but with strumming the following note 4 beats from the
beginning of the pre-verse and then once again after 8 beats. You'll figure it out.

e|----|
B|----|
G|-10-|
D|----|
A|----|
E|----|

Chorus
e|-8-8-8-8-8-8-8-8p7s8-8-8-8-8-8-8-8---------------------------------|
B|-----------------------------------8-8-8-8-8-8-6-6-8-8-8-8-8-8-6-6-|
G|-------------------------------------------------------------------|
D|-------------------------------------------------------------------|
A|-------------------------------------------------------------------|
E|-------------------------------------------------------------------|

Bridge
e|---------------------------------------------------------------|
B|------8-8-8-8-8-------10-10-10-10-10--8p10p8p10p8--------------|
G|-9-9-9----------7-7-7--------------------------9p10p9p10p9-(7)-|
D|---------------------------------------------------------------|
A|---------------------------------------------------------------|
E|---------------------------------------------------------------|

Play in the following order:
Intro (x4)
Verse (x16)
Fill (x2)
Pre-chorus (x4)
Chorus (x2)
Verse (x16)
Pre-chorus (x4)
Chorus (x4)
Bridge (x2)
Fill (x2)
Chorus (x5)

End on

e|---------|
B|-8-8-8-8-|
G|---------|
D|---------|
A|---------|
E|---------|

That's it for this tab! My favourite song from the brand new album "The Dream Walker"!

Rating, comments and corrections are always welcome!
************************************

| /   slide up
| \   slide down
| h   hammer-on
| p   pull-off
| ~   vibrato
| +   harmonic
| x   Mute note
| b   Bend
| pb  Pre-bend
| br  Bend release
| pbr Pre-bend release
| brb Bend release bend

************************************

Paralyzed Tabs – Angels And Airwaves

 -------------------------------------------------------------------------------
                             Angels & Airwaves - Paralyzed
-------------------------------------------------------------------------------
:
 alexxvedom 

Tuning: standard

Okay the song was released today and I don't know how this came to me.
I just picked up my guitar and started playing.
I know eventually there are going to be better tabs for this song but for now I just want to share
what I came up to so far.

guitar starts playing at 0:23

Intro

e|-5-5-5-5-5--5-5-5-5--5-5-5-5-|
B|-5-5-5-5-5--5-5-5-5--5-5-5-5-|
G|-2-2-2-2-2--2-2-2-2--2-2-2-2-|
D|-----------------------------| (x4)
A|-----------------------------|
E|-----------------------------|

e|-------------------------------------|
B|-------------------------------------|
G|---------------8-9-------------------|
D|-7-7-7-7-7-7-7-8-9-7-7-7-7-7-7-7/6\7-| (x4)
A|-7-7-7-7-7-7-7-6-7-7-7-7-7-7-7-7/6\7-|
E|-5-5-5-5-5-5-5-----5-5-5-5-5-5-5/4\5-|

Verse
e|-----------------|
B|-5-6-5-6-5-------|
G|-----------2-4-2-|
D|-----------------| (x2)
A|-----------------|
E|-----------------|

Chorus
e|-------------------------------------------12-12-10-10-10-10-10-10-10-10-9-9-9-9-9-9-9-9-|
B|-10-10-10-10-10-10-10-10-10-10-10-10-10-10-----------------------------------------------|
G|-----------------------------------------------------------------------------------------|
D|-----------------------------------------------------------------------------------------| (x2)
A|-----------------------------------------------------------------------------------------|
E|-----------------------------------------------------------------------------------------|

then again that intro thingy
e|-------------------------------------|
B|-------------------------------------|
G|---------------8-9-------------------|
D|-7-7-7-7-7-7-7-8-9-7-7-7-7-7-7-7/6\7-| (x2)
A|-7-7-7-7-7-7-7-6-7-7-7-7-7-7-7-7/6\7-|
E|-5-5-5-5-5-5-5-----5-5-5-5-5-5-5/4\5-|

Verse

Chorus

guitar 1
then a part that I guess is called bridge
e|-12-12-12-12-12-12-12-12-9-9-9-9-9-9-9-9-10-10-10-10-10-10-10-10-------------------------|
B|-----------------------------------------------------------------10-10-10-10-10-10-10-10-|
G|-----------------------------------------------------------------------------------------|
D|-----------------------------------------------------------------------------------------| (x3)
A|-----------------------------------------------------------------------------------------|
E|-----------------------------------------------------------------------------------------|

And second guitar starts playing this after guitar 1 plays one cycle above.
e|-----------------------------------|
B|-----------------------------------|
G|-9-9-------6------6-6-7-7-7--------|
D|-x-x-7-7-7-x-(x6)-x-x-x-x-x-7-(x2)-|
A|-7-7-x-x-x-4------4-4-5-5-5-x------|
E|-----5-5-5------------------5------|

Chorus

and finish with
e|-------------------------------------|
B|-------------------------------------|
G|---------------8-9-------------------|
D|-7-7-7-7-7-7-7-8-9-7-7-7-7-7-7-7/6\7-|
A|-7-7-7-7-7-7-7-6-7-7-7-7-7-7-7-7/6\7-|
E|-5-5-5-5-5-5-5-----5-5-5-5-5-5-5/4\5-|

e|--------------------------------|
B|--------------------------------|
G|---------------8-9--------------|
D|-7-7-7-7-7-7-7-8-9-7-7-7-7-7-7--|
A|-7-7-7-7-7-7-7-6-7-7-7-7-7-7-7--|
E|-5-5-5-5-5-5-5-----5-5-5-5-5-5--|

I love this song! Can't wait for the new album!

************************************

| /   slide up
| \   slide down
| h   hammer-on
| p   pull-off
| ~   vibrato
| +   harmonic
| x   Mute note
| b   Bend
| pb  Pre-bend
| br  Bend release
| pbr Pre-bend release
| brb Bend release bend

************************************

Doves Tabs by The Black Angels

 Doves by The Black Angels:

I can't believe no one tabbed this yet! This song is awesome, especially if you
crank the gain, and have a tremolo pedal around.

Anyway, it's pretty easy so listen to the song and refer to the following chords:

First Chord:

E|--2--
B|--3--
G|--2--
D|--0--
A|--0--
E|--0--

Guitar In The Background is doing the following

After strumming along with the D Chord as well:

E|--2-h-3---------|
B|--------3-------|
G|-----------2----|
D|----------------|
A|----------------|
E|----------------|

Chords During The Bridge: C Maj, G Maj, and D Maj

C Major:

E|-----
B|--5--
G|--5--
D|--5--
A|--3--
E|-----

G Major:


E|------|
B|--12--|
G|--12--|
D|--12--|
A|--10--|
E|------|


Back To D Major:

E|--2--
B|--3--
G|--2--
D|--0--
A|--0--
E|--0--

Spacemen 3 Section Near The End:

E|-------------------------------------------------------------------|
B|-------------------------------------------------------------------|
G|-------------------------------------------------------------------|
D|-----12--------12-----10-----10-----8--------8-----7--7-8-7--7-8-7-|
A|--0------0--0------0------0------0-----0--0-----0------------------|
E|-------------------------------------------------------------------|


And that's it! Have fun! :D

Dance With The Angels chords – Eyeshine

 Eyeshine - Dance With The Angels

Standard Tuning
    A Bm D F#m G 
e|-0---2---2---2---3-|
B|-2---3---3---2---3-|
G|-2---4---2---2---0-|
D|-2---4---0---4---0-|
A|-0---2---x---4---2-|
E|-x---x---x---2---3-|

Intro:
 G D A G D A  
 She left without a word
          G D A 
 It's so hard to let her go
  G D A 
 Don't know if I got this one right
        G D A  
 But I feel it burning deep inside


           D F#m  
 I've got Vegas
           Bm A 
 I've got Vegas on my mind
           D F#m 
 Somebody save us
                  Bm A  
 'Cause I've got Vegas on my mind
          G D A       
 All the time


  G D A 
 Kiss the summer breeze
        G D A 
 As my heart, it skipped a beat

 Don't know if I got this one right

 But I feel it burning deep inside


           D F#m  
 I've got Vegas
           Bm A 
 I've got Vegas on my mind
           D F#m 
 Somebody save us
                  Bm A  
 'Cause I've got Vegas on my mind


 D F#m Bm A 
 Somebody tell me how
       D F#m Bm 
 I've lost you now
      A 
 Why now?


  G A 
 Dance
           Bm D 
 With the angels
           G A    
 Like you danced
       Bm D 
 With me


            G A 
 Won't you dance
           Bm D  
 With the angels
           G A  
 Like you danced
       Bm D 
 With me?



           D F#m  
 I've got Vegas
           Bm A 
 I've got Vegas on my mind
           D F#m 
 Somebody save us
                  Bm A  
 'Cause I've got Vegas on my mind
          G D A       
 All the time
          G D A       
 All the time
          G       
 All the time


Enjoy!
-Sace97

Hark The Herald Angels Sing chords – Citizens

 Hark the herald angels sing

 C D E F# G A Bb C D G Em G Em     
        Hark the herald angels sing "Glory to the new born King
          G Em D A7 D 
        Peace on earth and mercy mild  God an sinners reconciled"
           G Em G Em 
        Joyful all ye nations rise_  Join the triumph of the skies
           C Am E7 Am D7 G D G 
        With angelic host proclaim  "Christ is born in Bethlehem"
           C Am E7 Am D7 G D7 G 
        Hark the herald angels sing "Glory to the new born King"


          G Em G Em     
        Christ, by highest heaven adored; Christ the everlasting Lord;
         G Em D A7 D 
        Late in time behold him come, Offspring of the favored one.
          G Em G Em 
        Veiled in flesh, the Godheadd see; hail the incarnate Diety
         C Am E7 Am D7 G D G 
        Pleased as man with men to dwell, Jesus, our Immanuel           
           C Am E7 Am D7 G D7 G 
        Hark the herald angels sing, "Glory to the new born King"


 D E F# G# A B C D E A F#m A F#m  
        Hail! the heaven-born Prince of Peace. Hail the son of Righteousness
          A F#m E B7 E 
        Light and life to all He brings, risen with healing in His wings
         A F#m A F#m 
        Mild He lays His glory by, born that man no more may die
         D Bm F#7 Bm E7 A E A 
        Born to raise the sons of earth, born to Give them second birth

           D Bm F#7 Bm E7 A E7 A 
        Hark the herald angels sing, "Glory to the new born King"

Haunting At 1300 Mckinley Tabs by The Black Angels V3

 This is a great song: it's easy to learn and fun to play. For distortion I find a
twang setting with medium drive/gain and a wah pedal to be pretty close. Use the
peak wah setting for the intro, then push it to the low setting for the chorus part.

Intro/Verse
Riff 1
e|--------------------|
B|--------------------|
G|----------6--6--6--6|
D|----------7--7--7--7|
A|----------7--7--7--7|
E|-3-3-4-5--5--5--5--5| Repeat x6

Riff 2
Change on line
"'You frightened?' she said. 'No one can hear us at all'"
e|-----------------|
B|---------7-7-7-7-|
G|---------7-7-7-7-|
D|---------7-7-7-7-|
A|3-3-4-5--5-5-5-5-|
E|-----------------| x2

Repeat Riff 1 twice: "There was this thought I was sane..."
Repeat Riff 2 once: "Don't be worried"
Repeat Riff 1: "Is all she said"

Pre-Chorus/Chorus
Riff 3. This comes right after the verse, beginning right before the line "Oh baby you whine"
e|------- |---------------------------------------|
B|------- |---------------------------------------|
G|------- |---------------------------------------|
D|------- |---------------------------------------|
A|------- |---------------------------------------|
E|3-3-4-5 |-5-5-p3-5h-p3-5h-3-5h-p3-5h-5-5-0-0-3-4|x4

Repeat Verse

The final chorus is the same except towards the end the riff changes to
e|---------------------|
B|---------------------|
G|---------------------|
D|---------------------|
A|-5-3-----------------|
E|5-5-5-5--5-5-0-0-3-4-|

Love Like Rockets chords – Angels And Airwaves V2

 D G/D D G/D D G/D 
     Due to the marvels of scientific advance,  my voice is coming to you
  D G/D D G/D D G/D 
From a satellite, circling in outer space.
              D G/D D G/D D G/D 
Through this unique means, I convey to you and all of mankind America's wish for Peace on Earth

( D - G/D ) x3   ( D - G/D ) x7

 D G/E D/F# G D G/E D/F# G 
I held my head as I left the ground,  the belts grew tight as the blast grew loud
 D G/E D/F# G D G/E D/F# G 
A loving wish whispered in my ear,  please leave with grace, all the best my dear
                D G/E D/F# G D G/E D/F# G 
Yeah, it's like I held your hand as I pulled you in,    your lips sealed tight ready to begin
 D G/E D/F# G D G/E D/F# G 
I kissed you first then you kissed my air,    if I ask you once will you ask me every year?

    D/F# G D/A G D/F# G D/A G                ( D - G/D ) x4
Do you fe-el alive? (Imagine, imagine)  do you fe-el alive? (Imagine, imagine)

 D G/E D/F# G D G/E D/F# G 
The sun is set in the night time sky,    the stars they cast a glow upon my eyes
 D G/E D/F# G  
The earth itself a burning ball of light, yeah,
             D G/E D/F# G 
It's like, when our first love was ignited late that night

    D/F# G D/A G D/F# G D/A G                ( D - G/D ) x4
Do you fe-el alive? (Imagine, imagine)  do you fe-el alive? (Imagine, imagine)

Solo ( D G/E D/F# G ) x3

       D G/E D/F# G 
The stars in your eyes light up the sky with thoughts, light and fire and sound   x6

Example Chords Tab:
   D G/D D G/D 
e--2--3---5--3-------------------------|
b--3--3---7--3-------------------------|
g--2--4---7--4-------------------------|
d--0--0---0--0-------------------------|
a--------------------------------------|
E--------------------------------------|
e--------------------------------------|

Angels We Have Heard On High chords – Third Day

 Intro: Guitar Figure (4 bars over  E B E )

Verse1
 E B E 
Angels we have heard on high
 E B E 
Sweetly singing o'er the plains,
 E B E 
And the mountains in reply
 E B E 
Echoing their joyous strains.
 E B E  (x2) (w/ keyboard figure)

Verse2
Shepherds, why this jubilee?
Why your joyous strains prolong?
What the gladsome tidings be?
Which inspire your heavenly song?

Chorus1
 E/G# A E/G# B E F#m A B 
Gloria,______________ in excelsis Deo!

Turn:  E  -  B  -  G#m A B  (w/ keyboard figure)

Verse3
Come to Bethlehem and see
Him Whose birth the angels sing;
Come, adore on bended knee,
Christ the Lord, the newborn King.

Chorus2
 E/G# A E/G# B E F#m A B 
Gloria,______________  in excelsis Deo!
 E/G# A E B F#m C#m A B 
Gloria,______________  in excelsis Deo!

Turn:  E  -  B  -  G#m A B  (2x w/ keyboard figure)

Verse4
See Him in the manger lay
Jesus, Lord of heav’n and earth
Mary Joseph, lend your aid
With us sing our Savior's birth

Chorus3
 E/G# A E/G# B E F#m A B 
Gloria,______________     in excelsis Deo!
 E/G# A E B F#m G#m A B 
Gloria,______________     in excelsis Deo!
 F#m C#m A B 
in excelsis Deo!
 F#m G#m A B 
in excelsis Deo!

End
 E  -  B  (x4) (keyboard figure)
 E 

This version matches the video here: http://www.youtube.com/watch?v=UO3tqaHyNJM
The guitar figure and keyboard figure are pretty easy.

Ten Thousand Angels chords – Loretta Lynn

 Ten Thousand Angels
Recorded by Loretta Lynn
Written by Ray Overholt

 G C G 
He could have called ten thousand angels

                                      D7 G 
They bound the hands of Jesus in the garden where He prayed
      C G 
They led Him through the streets in shame
                              D7 G 
They spat upon the Savior so pure and free from sin
           Am D7 G 
They said crucify Him He's to blame

 G7 C G 
He could have called ten thousand angels
                                
To destroy the world and set Him free
 G7 C G 
He could have called ten thousand angels
                    D7 G 
But He died alone  for you and me

                             D7 G 
Upon His precious head they placed a crown of thorns
      C G 
They laughed and said behold the king
                                         D7 G 
They struck Him and they cursed Him and mocked His holy name
         Am D7 G 
And all alone He suffered everything

Repeat #2

Hark The Herald Angels Sing Tabs by Mikeschair

 Intro
    G#                     D#                   G#
E|--------------------------------------------------------|
B|--13--13--13--13--11--13--16--13--13--13--13--11--9--9--|
G|--------------------------------------------------------|
D|--------------------------------------------------------|
A|--------------------------------------------------------|
E|--------------------------------------------------------|

Verse 1

G#
Hark! the herald angels sing

Glory to the newborn King

Peace on earth and mercy mild
A#
God and sinners reconcile.
D#
Joyful all ye nations rise

Join the triumph of the skies;
A#
With the angelic host proclaim
D#                      G#
'Christ is born in Bethlehem'
A#
Hark! the herald angels sing
D#           D# (Let Ring)
Glory to the newborn King.

Intro X2
Verse 2 same as Verse 1

Christ by highest heaven adored
Christ the everlasting Lord
Late in time behold him come,
Offspring of a virgin's womb.
Veiled in flesh the Godhead see;
Hail, the incarnate deity,
Pleased as Man with to dwell,
Jesus, our Emmanuel!
Hark! the herald angels sing,
Glory to the newborn King.

Intro X4

(Drums Only)
Hail, the heaven-born Prince of peace!
Hail the Sun of righteousness!
Light and life to all he brings,
Risen with healing in his wings.
Mild he lays his glory by,
Born that man no more may die,
Born to raise the suns of earth,
Born to give them second birth.
A# (Let Ring)
Hark! the herald angels sing,
D# (Let Ring)         G# (Let Ring)
Glory to the newborn King.
A# (Let Ring)
Hark! the herald angels sing,
D# (Let Ring)         G# (Let Ring)
Glory to the newborn King.

End on Intro

Hark The Herald Angels Sing Modulated chords – Chris Tomlin

 Hark the Herald Angels Sing     Key – F to G 
Words and Music by Charles Wesley and Felix Mendelssohn
Arrangement by Chris Tomlin


Verse 1  
 F5 C/E   
Hark the herald angels sing  
 
 Dm7 F C/E F   
Glory to the new - born King  
 
 F5 G   
Peace on earth and mercy mild  
 
 C/E   
God and sinners reconciled  
 
 F/C Bb2 Csus  
Joyful all ye nations rise  
 
 F/C Bb2/D Csus   
Join the triumph of the skies  
 
 Bb2 Gm (add4) 
With angelic hosts proclaim  
 
 Csus/G Dm7/A Csus F2  
Christ is  born in Bethle - hem  
 
 Bb2 Gm (add4) 
Hark the herald angels sing  

 Csus/G Dm7/A Csus F2  
Glory   to the newborn King 

Verse 2  
 F5 C/E   
Christ by highest heav’n adored  
 
 Dm7 F C/E F   
Christ the everlasting Lord  
 
 F5 G   
Late in time behold Him come  
 
 C/E   
Offspring of a virgin’s womb  
 
 F/C Bb2 Csus   
Veiled in flesh the Godhead see  
 
 F/C Bb2/D Csus   
Hail th’ incarnate De - i - ty  
 
 Bb2 Gm (add4) 
Pleased as man with men to dwell  
 
 Csus/G Dm7/A Csus F2  
Jesus   our  Emmanu - el  
 
 Bb2 Gm (add4) 
Hark the herald angels sing  
 
 Csus/G Dm7/A Csus F2  
Glory   to the newborn King  


Verse 3  
 G5 D/F#   
Hail the Heav’n born Prince of Peace  
 
 Em7 G D/F# G   
Hail the Son of righteousness  
 
 G5 A   
Light and life to all he brings  
 
 D/F#   
Ris’n with healing in His wings  
 
 G/D C2 Dsus  
Mild He lays His glory by  
 
 G/D C2 Dsus   
Born that man no more may die  
 
 C2 Am (add4) 
Born to raise the sons of earth  
 
 Dsus Em7/B Dsus G2  
Born to give them second birth 
  
 C2 Am (add4) 
Hark the herald angels sing  
 
 Dsus Em7/B Dsus G2  
Glory to the newborn King 

REPEAT

 C2 Am (add4) 
Hark the herald angels sing  
 
 Dsus Em7/B Dsus G2  
Glory to the newborn King

Hark The Herald Angels Sing chords – Misc Christmas V7

 E B E A E B E 
Hark the herald angels sing "Glory to the new born King
                     C#m B F# B 
Peace on earth and mercy mild  God an sinners reconciled"
           E B E B   
Joyful all ye nations rise  Join the triumph of the skies
   A F#m B E B E 
With angelic host proclaim  "Christ is born in Bethlehem"
   A F#m B E 
Hark the herald angels sing "Glory to the new born King"


  E B E A E B E 
Christ, by highest heaven adored; Christ the everlasting Lord;
                C#m B F# B 
Late in time behold him come, Offspring of the favored one.
 E B E B 
Veiled in flesh, the God head see; hail the incarnate Deity
 A F#m B E        
Pleased as man with men to dwell, Jesus, our Immanuel
   A F#m B E 
Hark the herald angels sing, "Glory to the new born King"


 E B E A E B E 
Hail! the heaven-born Prince of Peace. Hail the son of Righteousness
                    C#m B F# B 
Light and life to all He brings, risen with healing in His wings
 E B E B 
Mild He lays His glory by, born that man no more may die
 A F#m B E B E 
Born to raise the sons of earth, born to Give them second birth
   A F#m B E 
Hark the herald angels sing, "Glory to the new born King"

Angels We Have Heard On High chords – Misc Christmas V4

 Verse 1:
      C Am G F C C G C F C G7 C 
Angels we have heard on high, sweetly sing - ing o’er the plains, 
       C Am G F C C G C F C G7 C 
and the mountains   in  reply Ech  - o - ing their joyous strains.

Chorus:
 C A Dm G C Am G G7   
Gl -o - o - o - o -  o - o - o - o - o - o - ria 
 Am G C F C G 
In  - ex - cel - sis  De - o!

 C A Dm G C F G G7   
Gl -o - o - o - o -  o - o - o - o - o - o - ria 
 Am G C F C G C 
In  - ex - cel - sis  De - o - o!

Verse 2:
    C Am G F C C G C F C G C 
Shepherds, why this   jub - i - lee? Why your joyous strains prolong?
    C Am G F C C G C F C G C 
What the gladsome tidings be which inspire your heavenly song?

Verse 3:
    C Am G F C C G C F C G C 
Come to Beth - le - hem, and see Him whose birth the angels sing;
    C Am G F C C G C F C G C 
Come, adore on bended knee Christ the Lord; the new born King.

Verse 4:
    C Am G F C C G C F C G C 
See Him in   a     man - ger laid, whom the choirs of angels praise;
    C Am G F C C G C F C G C 
Mary, Joseph. lend your aid, While our hearts in love we raise. 

Anxiety Tabs by Angels And Airwaves V4

 -----------------------------------------------------------------------------
                             Anxiety - Angels & Airwaves
-----------------------------------------------------------------------------
: Lexi_The_Rocker


Tuning: Standard

intro bell sounds. optional. guitar one 0:07
e|--------------------------------------------------------------------------|
B|---8----------------------------------------------------------------------|
G|------9-------------------------------------------------------------------|
D|---------10---------------------------------------------------------------|
A|--------------------------------------------------------------------------|
E|--------------------------------------------------------------------------|
repeat for as long as you think right

meanwhile guitar two
e|--------------------------------------------------------------------------|
B|--------------------------------------------------------------------------|
G|----999999999999----------------------------------------------------------|
D|--------------------------------------------------------------------------|
A|--------------------------------------------------------------------------|
E|--------------------------------------------------------------------------|
also continue as long as you chose

guitar one transitions to: INTRO2*
e|--------------------------------------------------------------------------|
B|----------------------6-6666----------------------------------------------|
G|--9-9999---7-77777------------5-55555---9-9999---7-77777---9-9999---------|
D|--------------------------------------------------------------------------|
A|--------------------------------------------------------------------------|
E|--------------------------------------------------------------------------|

----------------------------------------------------------------------------|
--------------------------------6-6666--------------------------------------|
--7-77777---9-9999---7-77777------------5-55555---9-9999---7-77777---9-9999-|
----------------------------------------------------------------------------|
----------------------------------------------------------------------------|
----------------------------------------------------------------------------|

----------------------------------------------------------------------------|
-------------------------------6-6666---------------------------------------|
--7-77777---9-9999---7-77777------------5-55555---9-9999---7-77777---9-9999-|
----------------------------------------------------------------------------|
----------------------------------------------------------------------------|
----------------------------------------------------------------------------|

----------------------------------------------------------------------------|
-------------------------------6-6666---------------------------------------|
--7-77777---9-9999---7-77777------------5-55555---9-9999---7-77777---9-9999-|
----------------------------------------------------------------------------|
----------------------------------------------------------------------------|
----------------------------------------------------------------------------|

---------------------------------------------------------------------------|
---------------------------------------------------------------------------|
--7-77777---9-9999---7-7777---10-10-9---7-777777---5/-9-7-5----------------|
---------------------------------------------------------------------------|
---------------------------------------------------------------------------|
---------------------------------------------------------------------------|

---------------------------------------------------------------------------|
---------------------------------------------------------------------------|
--9-9999---7-77777---10-10-9---7-777777---5/-9-7-5------

Hark The Herald Angels Sing chords – Bob Dylan

 ---------------------------------------------------------------------------
                Hark the Herald Angels Sing
---------------------------------------------------------------------------
: maguri
Tuning: Standard

Hark the Herald Angels Sing
(Mendelssohn-Bartholdy/William H Cummings/Charles Wesley/George Whitfield)

---------------------------------------------------------------------------
CHORDS (alphabetical)

          E-A-D-G-B-E
 A7/F       1-x-2-0-2-0 or
          x-x-3-0-2-0
 Bb/D       x-x-0-3-3-1
 C/Bb       x-1-2-0-1-0
 C/E        0-3-2-0-1-0
 C7/E       0-3-2-3-1-0 or
          x-x-2-3-1-0
 D7         x-5-4-5-3-x
 D7/F#      2-x-0-2-1(2)
 Dm/G       3-x-0-2-3-1
 F *        1-3-3-2-x-x
 F/A        x-0-3-2-1-1
 F/C        x-3-3-2-1-1
 Faug       1-3-x-2-2-1
 Fsus2      1-3-3-0-x-x
 Fsus4      1-3-3-3-x-x
 G/B        x-2-0-0-0-x
 G6         3-x-0-0-0-0
 G7 *       3-x-3-0-3-x

---------------------------------------------------------------------------

INTRO
|  F A7/F  |  F  |  F / C C7  |  Fsus4 Fsus2 F *  |

 F C F/A F/C C
Hark! the herald angels sing, -
  F/A Bb F/C C7 F
"Glory to the new-born King!
 F C Dm G
Peace on earth, and mercy mild,
 Am G/B C G6 G7 *  C
God and sinners re-con-ciled"
 F/C F/A C7/E F F/C C
Joyful, all ye  na - tions, rise,
 F/C F/A C7/E F F/C C
Join the triumph of   the skies;
 Bb D7/F# Gm D7 *  Gm
With angelic   host pro-claim,
  C/Bb F/A F/C C F
"Christ is born in Bethlehem"
 Bb D7/F# Gm D7 *   Gm
Hark! the herald  an-gels sing,
  C/Bb F/A F/C C F
"Glory to the new-born King!


 F Faug F C
Hark! the herald angels si-ng, -
  F Bb/D F/A C/G F
"Glory to the new-born King!
 F Faug F Gsus4 G
Peace on earth, and mercy mi -- ld,
 C/E C/G Dm/G C/G
God and sinners re – con - ciled"
 F/C F/A C7/E F F/C C
Joyful, all ye  na - tions, rise,
 F/C F/A C7/E F F/C C
Join the triumph of   the skies;
 Bb D7/F# Gm D7 *  Gm
With angelic   host pro-claim,
  C/Bb F/A F/C C F
"Christ is born in Bethlehem"
 Bb D7/F# Gm D7 *   Gm
Hark! the herald  an-gels sing,
  C/Bb F/A F/C C F
"Glory to the new-born King!

OUTRO
|  F A7/F  |  F  |  F / C C7  |  F  |


------------

Crayon Angels Tabs by White Antelope

                                   ~~~~~~~~~~~~~~~~~~~~~~~~~~~~~~~~~~~~~~~~
                                               Crayon Angels     
                                              White Antelope
                                              
                                  ~~~~~~~~~~~~~~~~~~~~~~~~~~~~~~~~~~~~~~~~
: Connor O.
Tuning: Standard
YT link: https://www.youtube.com/watch?v=enNqBKBXmHc



A Robin Pecknold rendition of Judee Sill's work. 

Pretty straight-forward. All of the verses are played pretty much exactly
the same way and the intro and solo are very similar.

Comment or message any ideas or corrections. Please rate my tab. If you've got
problems with the tab, I'd encourage you to contact me with those problems so I
can fix the tab or provide advice for playing. Don't just give me a poor rating
and not give me any feedback. The idea is for us all to work together to create
a perfect finished product. This tab just represents the best I can do. It's 
definitely up for peer review.



Key:
where # represents a fret number

#h# - hammer
#p# - pull
/ \ - slides, up and down respectively.
(#) - optional note. just shows timing, not actually played.



Intro:


  0:15
    
e|---------------------------------------------------------------------|
B|---------0-------0---------1-----0---------1-----0---------1-----0---|
G|-------------------------------------0-------------------------------|
D|-----------------------0h2---2---------0h2---2---------0h2---2-------|
A|---------------------------------------------------------------------|
E|-3--(3)--3--(3)--3---3--(3)-(3)--3---3--(3)-(3)--3---3--(3)-(3)--3---|


  0:20

e|-------------------2-------2-----------------------------------------|
B|-----------------------------------3---------1-----1-----1-----1-----|
G|-----------------2-------0-------2-------0---2-----------2-----------|
D|---0-----0---0--(0)--0h2(0)------------------2---2---2---2---2-------|
A|-----------------------------0---0---0h2-----0--(0)--0---0--(0)------|
E|-3---3-----------------------------------------------------------0---|
                

  0:26

e|---------------------------------------------------------------------|
B|---------0---------1-----0---------1-----0---------1-----0-----------|
G|---------------------------------------------------------------------|
D|---------------0h2---2---------0h2---2---------0h2---2---------0-----|
A|---------------------------------------------------------------------|
E|-2---3---3---3--(3)-(3)--3---3--(3)-(3)--3---3--(3)-(3)--3---3---3---|



Verse 1:


  0:32
             Crayon Angels songs are slightly out of tune
e|-----------------2-------2-------------------------------------------|
B|-----0-------0-------3-------1--------1---0--------------------------|
G|---------0---------2-------2-----0------------0----------------------|
D|-------0-------0-0-----0-------2--------2---0------------------------|
A|-----------------------------3------3--------------------------------|
E|-2---0-----3------------------------------3-----3--------------------|
        {   G    }{     D     }{     C    }{  G  }

  0:37
             But I'm sure I'm not to blame
e|-----------------2-------2-------------------------------------------|
B|-----0-------0-------3-------1--------1---0-------0------------------|
G|---------0---------2-------2-----0------------0----------------------|
D|-------0-------0-0-----0-------2--------2---0------------------------|
A|-----------------------------3------3--------------------------------|
E|-2---0-----3------------------------------3-----3--------------------|
        {   G    }{     D     }{     C    }{  G  }


  0:42
             Nothing's.....                 So I sit here
e|-----------------2-------2-------------------------------------------|
B|-----0-------0-------3-------1--------1---0-------0------------------|
G|-----

Error Chords – Madeline Juno

 =====================
MADELINE JUNO - ERROR
=====================

Hope you enjoy playing my song! 

VERSE 1
=======

 F# 
SO NAKED
 F#/F 
I’M WALKING
 F#/D# F#/C# 
TO FIND WHAT’S LEFT OF ME
 F# 
THE MIRRORS
 F#/F 
THROW SHADOWS
 F#/D# F#/C# 
ACROSS MY DESTINY

 B Bbm 
NOTHIN’S RIGHT
        D#m 
HERE TONIGHT
         F#  
ALL THE ANGELS LEFT ME
 B Bbm 
THE LULLABIES
         D#m  
TURN TO LIES
    C# D#m 
BELIEVE ME

=======
BRIDGE
=======

        B G#m 
NO YOU DON’T WANNA KNOW
 C# F#/Bb 
THIS KIND OF LOVE
        B G#m 
NO YOU DON’T WANNA KNOW
 C# F#/Bb 
THIS KIND OF LOVE
         B 
AND YOU DON’T WANNA KNOW
     C# D#m 
THE NIGHT YOU REALIZE

=======
CHORUS
=======

     B 
THE ERROR, ERROR, ERROR
         D#m     
IN THIS KIND OF LOVE
 C# 
ERROR, ERROR, ERROR
         D#m 
IN THIS KIND OF LOVE
 B 
ERROR, ERROR, ERROR
         D#m 
IN THIS KIND OF LOVE
 C# 
ERROR, ERROR, ERROR        
IN THIS KIND OF LOVE

=======
VERSE 2
=======

 F# 
SOMEBODY
 F#/F 
COME TO ME
 F#/D# C# 
SOMEBODY HOLD MY HAND
 F# 
I’M DOWN HERE
 F#/F 
I’M BROKEN
 F#/D# C# 
I TRY TO UNDERSTAND

 B Bbm 
THAT NOTHIN’S RIGHT
        D#m 
HERE TONIGHT
         F# 
ALL THE ANGELS LEFT ME
 B Bbm 
I TRY TO FIND
          D#m 
A LITTLE LIGHT
    C# D#m 
TO GUIDE ME

=======
BRIDGE
=======

=======
REF
=======

=======
MID 8
=======

 B 
ALL THE TEARS
ALL THE SMILES
         D#m C# 
THAT WE NEVER SHARED
AND I KNOW, I STILL KNOW
         D#m B 
I COULD TAKE YOU THERE
TELL MY WHY, TELL ME WHY
       D#m C# D#m 
I SEE EVERYWHERE – EVERYWHERE

 B 
ERROR, ERROR, ERROR
         D#m 
BETWEEN YOU AND I
 C# 
ERROR, ERROR, ERROR
 D#m 
HERE TONIGHT
 B 
ERROR, ERROR, ERROR
       D#m 
WE’RE NOT ALIVE
 C# 
ERROR, ERROR, ERROR

=======
CHORUS
=======
 B 
ERROR, ERROR, ERROR
         D#m 
BETWEEN YOU AND I
 C# 
ERROR, ERROR, ERROR
 D#m 
HERE TONIGHT
 B 
ERROR, ERROR, ERROR
 D#m 
TELL ME WHY
 C# 
ERROR, ERROR, ERROR
TELL ME WHY
         D#m 
NOTHING FEELS ALRIGHT
 B 
ERROR, ERROR, ERROR
         D#m 
IN THIS KIND OF LOVE
 C# 
ERROR, ERROR, ERROR
         D#m 
IN THIS KIND OF LOVE
 B 
ERROR, ERROR, ERROR
         D#m  
IN THIS KIND OF LOVE
 C# 
ERROR, ERROR, ERROR
         D#m B 
IN THIS KIND OF LOVE


Losing You Chords – Dream Evil

 Didn't find any chords to this song so I decided to tab it myself, hope you like it!

Intro:  Am G Am G Am G F Am G 
In the dead of the night
 Am G 
As the candles die out
 Am G F 
I'm watching her going to sleep
 Am G 
She has to be strong
 Am G 
She's left all alone
 Am G F 
I have to go out in the fields

 Dm G 
You're all I ever wanted
              Am G Am G 
There's just pain without you
 Dm G 
But something came between us,
    F E 
My love

 
 Am G 
Words cannot express
 Am G 
The sorrow I feel
 Am G F 
I wish I could turn back time
 Am G 
To where we began
 Am G 
Where love has no end
 Am G F 
And you and me were as one

 Dm G 
You're all I ever wanted
              Am G Am G 
There's just pain without you
 Dm G F E 
Hear the angels cry in heaven, my love


     Am G C 
I'm scared I might be losing you
       Dm E Am G 
and I don't know which way to turn
   C Dm Am             
I feel I might be losing you
   G F E Am 
I can't live my life without your love

 Am G 
The sound of your breath
 Am G 
The smell of your hair
 Am G F 
The touch of your golden skin
 Am G 
They keep me awake
 Am G 
Through out every night
 Am G F 
To think of what might have been

 Dm G 
You're all I ever wanted
           Am G Am G 
You're my life and my lust
 Dm G F E 
I could never mean to hurt you, my love


     Am G C 
I'm scared I might be losing you
       Dm E Am G 
and I don't know which way to turn
   C Dm Am             
I feel I might be losing you
   G F E Am 
I can't live my life without your love

 E C Am Dm Am 
I have fought so many battles
 Dm C E 
I have suffered so much pain
 Dm Am                        
Without you to love and hold me
 Dm C E   
All of this would be in vain


I'm scared I might be losing, 
I feel I might be losing you
I can't live my life without your love

I'm scared I might be losing you
and I don't know which way to turn
I feel I might be losing you
I can't live my life without your love