Tag: arms

Arms Around A Memory chords – Hilary Duff

 Hilary Duff - Arms Around A Memory

Standard Tuning - No Capo

    Bb C Dm F Gm 
e|-1---0---1---1---3-|
B|-3---1---3---1---3-|
G|-3---0---2---2---3-|
D|-3---2---0---3---5-|
A|-1---3---x---3---5-|
E|-x---0---x---1---3-| 

 Dm Bb 
 Hot sweats in cold sweaters
 C Gm Dm 
 I feel a little lost since you've been gone
                 Bb 
 The blame helps you feel better
 C Gm Dm 
 Until you run across the cloud I'm on
 

                        Bb C 
 You're reaching for a hand that's in the past
                        Gm Dm 
 And beaches where the sand has turned to glass
                  Bb C 
 Your television life couldn't channel this love


 Gm Dm Bb F  
 You can't put your arms around a memory
 Gm Dm Bb F  
 You can't put your arms around a memory
              Dm Bb 
 And now I'm wishing you were here
                    C F 
 As much as I wish you would disappear
                Dm Bb 
 So will you remember to forget me?
                     F Dm Bb F C Dm Bb 
 You can't put your arms around a memory (a memory)
                     F Dm Bb F C Dm Bb 
 You can't put your arms around a memory (a memory)
                Dm Bb 
 So will you remember to forget me?
                     F Dm Bb F C Dm Bb 
 You can't put your arms around a memory (a memory)
 

 Dm Bb 
 A life boat in dead water
 C Gm Dm 
 A ship inside, a battle that we broke
             Bb 
 And we lost our true colours
 C Gm Dm 
 We opened every door until we closed


                       Bb C 
 And I could feel you in my air tonight
                     Gm Dm 
 Coming through the waves in satellites
               Bb C 
 But our city skies will never light up


 Gm Dm Bb F  
 You can't put your arms around a memory
 Gm Dm Bb F  
 You can't put your arms around a memory
              Dm Bb 
 And now I'm wishing you were here
                    C F 
 As much as I wish you would disappear
                Dm Bb 
 So will you remember to forget me?
                     F Dm Bb F C Dm Bb 
 You can't put your arms around a memory (a memory)
                     F Dm Bb F C Dm Bb 
 You can't put your arms around a memory (a memory)
                Dm Bb 
 So will you remember to forget me?
                     F Dm Bb F C Dm Bb 
 You can't put your arms around a memory (a memory)


 Dm Bb 
 Hot sweats in cold sweaters
 C Gm Dm 
 I feel a little lost since you've been gone



Enjoy!
-Sace

When The Boy In Your Arms chords by Connie Francis

 When The Boy In Your Arms:Connie Francis.
#8 on CASHBOX and #10 on BB Hot 100 on
MGM Records in 1961.

INTRO:  F Bb F C  

#1.
 A F Bb 
When the boy in your arms, is the boy in 
 C G C F C 
your heart..then you've got everything.
             F            
When you're holding the dream you've been 
 Bb G C C7 
dreaming you'd hold, you're as rich as a 
 F 
king.

CHORUS:
     Bb F 
So, hold him tight and never let him go..
 G C 
day and night, let him know you love him so.

#2.
 Bb F Bb 
With the love of your life, spend a life time 
   G              C             F......Db
of love..make him yours for evermore.


INTERLUDE:  Gb B Ab Db Ab Gb 


CHORUS:
     B Gb 
So, hold him tight and never let him go..
 Ab Db 
day and night, let him know you love him so.

#3.
 Gb B 
With the love of your life, spend a life time 
    Ab Db Gb 
of love..make him yours for evermore.

OUTRO:
 Gb Db Gb B Gb 
Make him yours for evermore........(Fade.)



A sixties smash from Kraziekhat.

Amim Van – Arms Open Wide chords – Hillsong United

 [Intro]
 C 

[Vers 1]
 C 
 Amim van, hozom eléd
 Am 
 Leteszem a keresztnél
 G F C 
 Legyen minden csak Tiéd Uram

[Vers 2]
 C 
 Minden lépés, minden szó
 Am 
 Legyen tiszta, mint a hó
 G F C 
 Ahol járok, Te legyél az Út

[Kórus]
     F C G Am 
Ó - ó, szomjas szívem Terád vár
     F Am G 
Ó - ó, arra vágyom, ölelj át

[Vers 3]
 C 
 Minden óra, minden nap
 Am 
 Minden sóhaj, gondolat
 G F C 
 Rólad szóljon, Rólad Uram

[Kórus]

[Átvezetés]
       C G Am 
Egész életem átadom, hadd legyen Tiéd
        F G F G 
Velem bármit terveztél legyen meg! Örökké

Throw Your Arms Around Me chords – Summer Fiction

 Capo on 4. Listen for timing. Standard chords. Let me know for improvements. Works 
well to sing with :)

Intro:

 G G D G G D Em Em D Em Em D C C D D G G D G G 

VERSE:
      D G D G 
He broke your heart
       D Em Em D Em Em D 
In fifteen places.
       C C D 
Remember faces
                       G D G        
But not the names
      D G D G 
Right from the start
       D Em Em D Em Em D 
Your warm embraces
       C C D G G D G G 
But time erases and people change

     
CHORUS
      C D Em Em D Em Em      
Come and I’ll make you see
       C D G G D G G 
My darling throw your arms around me

REPEAT VERSE CHORDS

Now that he’s back
In your good graces
Your lipstick traces
Make me afraid
I broke my arm
Running the bases
Tripped over laces
Cut by the blade

      C D Em Em D Em Em      
You whispered to me softly
       C D G G D G G 
My darling throw your arms around me


Interlude:  G G D G G Em Em D Em Em C C D D G G C D Em Em D Em Em      
Hold on to me tightly
       C D Em Em D Em Em 
And darling, throw your arms around me
       C D G G D G G 
My darling throw your arms around me

In Your Arms Tabs by Chefspecial

 In your arms - Chef'Special

Capo on 3rd.
----------------

Intro/verse
E-----2-------2------2-----2--------|
B-----3-------3------3-----3--------|
G-----2-------3------2-----3--------|
D-----0-------0------0-----x--------|        x3
A--------------------x-----1--------|
E--------------------3--------------|

pre-chords
E-----2-------0-------2------2-----------------|
B-----3-------2-------3------3-----------------|
G-----2-------2-------2------2-----------------|         x3
D-----0-------2-------0------0-----------------|
A-------------0-------x------x-----------------|
E---------------------3------3-----------------|

pre-chords
E----10--------------8-----8-------8---------------|
B----11--------------8-----8-------8---------------|
G----12--------------9-----10------9---------------|    x2
D----12-------------10-----10------10--------------|
A----10-------------10------x------10--------------|
E--------------------8------8-------8--------------|

chords
E-----2-------0-------2------2-----------------------|
B-----3-------2-------3------3-----------------------|
G-----2-------2-------2------2-----------------------|
D-----0-------2-------0------0-----------------------|               x4
A-------------0-------x------x-----------------------|
E---------------------3------3-----------------------|

. Tips are welcome!
Greets,
Berend Adan

In Your Arms chords – Chef Special

 F A7 
Know you’re gone, I know you’re gone
 Bb Gm 
But I don’t feel what I know
 F A7 
I know you’re gone, I know you’re gone
 Bb Gm 
But my mind ain’t in control
               F C            
Cause it’s my heart that’s been missing you
              Bb               
And it’s the heart I need to listen to
               F C 
And it’s been singing songs for tender dreams
              Bb  
But when you sang to help us sleep
     F C Bb 
And one day I will sing those songs, sing them ‘till they sleep
 Gm C 
Just like you sang to me
 Gm C 
Just like you sang, sang to me

[Chorus:]
          F C Bb F 
From the day that I met you I stopped feeling afraid
         Dm C 
In your arms I feel save
         Dm C 
In your arms I feel save
          F C Bb F 
From the day that I met you I stopped feeling afraid
         Dm C 
In your arms I feel save
         Dm 
In your arms

[Verse 2:]
 F A7 
I miss you so, I miss you so
 Bb Gm 
And I’ll miss you ‘till i’m old
 F A7 
I miss you so, I miss you so
 Bb Gm 
But my fears will fade, I know
                F C            
‘cause it’s my heart that you helped to build
     Bb               
And love is my compass still yeah
 F C 
Love will fill the holes I’ve got
              Bb  
‘cause you will never hold me
     F C Bb 
But I know that you are with me, I know that you have peace
 Gm C 
Cause you let us sing to sleep
 Gm C 
You let us sing your heart to sleep


[Chorus:]
          F C Bb F 
From the day that I met you I stopped feeling afraid
         Dm C 
In your arms I feel save
         Dm C 
In your arms I feel save
          F C Bb F 
From the day that I met you I stopped feeling afraid
         Dm C 
In your arms I feel save
         Dm 
In your arms

[Pre-Chorus]
 F C 
And i know that you are with me
       Dm Bb 
And i know that you have peace
 C 
Cause you let us sing your soul, your mind and heart to sleep

[Chorus:]
          F C Bb F  (pause)
From the day that I met you I stopped feeling afraid
         Dm C 
In your arms I feel save
         Dm C 
In your arms I feel save
          F C Bb F 
From the day that I met you I stopped feeling afraid
         Dm C 
In your arms I feel save
         Dm 
In your arms

(repeat chorus twice)


[Outro] 
 F A7 
I miss you so, I miss you so
 Bb Gm 
And I’ll miss you ‘till I’m old

How Come Your Arms Are Not Tabs by City And Colour V2

 Tuning: C Standard- 2 Full Steps Down
Dallas Green has done it once again with a very nice cover. The whole song is really 
just 3 chords.
Em - C - G. With simple hammer ons added on throughout. The strumming pattern does
increase as the song progresses, but its not hard to figure it out. Most of the song he plays
the G chord part twice, sometimes he plays it once and restarts the bar over, so watch 
out for that. Enjoy! Seemed pretty accurate!


(/) Slide Up  (\) Slide Down  (h) Hammer On  (p) Pull Off  (b) Bend (r) Release (v) Vibrato

C  |--0--0----0----0--0---------0----0----------0-----0----|
G  |--0--0h1--1h3--0--0h1p0-----0h1--1h3--------0h1---1h3--|
Eb |--0--0----0----0--0---------0----0----------0-----0----|
Bb |--2--2----2----2--2------0--0----0---- 0----0-----0----|
F  |--2--2----2----3--3------2--2----2--- -0h2--2-----2----|
C | --0--0----0--------------3--3----3-----3----3-----3----|
                   ^
                   ^
         Occasionally do the same hammer on process as the Em chord before
                0h1 -- 1h3

Die In Your Arms chords – Ariana Grande

 Die In Your Arms (Justin Bieber Cover)

Capo 5

Intro:
 G D Em D Am D  
x2

Verse:
         G D Em D 
Say you love me, as much as I love you, yeah
           Am 
Would you hurt me baby
           D 
Could you do that to me, yeah
           G D 
Would you lie to me baby?
           Em D 
'Cause the truth hurts so much more
           Am 
Would you do the things that drive me crazy,
 D 
Leave my heart still at the door? 

Pre-chorus: 
    G D 
Oh I can't help it I'm just selfish
 Em D 
There's no way that I could share you
 Am 
That would break my heart to pieces
 D 
Honestly the truth is 

Chorus:
                 G D Em D 
If I could just die in your arms
   Am 
I wouldn't mind
        D 
'Cause every time you touch me
        G D Em D 
I just die in your arms
           Am 
Oh but it feels so right
    D 
So baby baby baby please don't stop, boy

Post-chorus:
 G Em Am D 

(Talking) You know this ain't the first time
This has happened to me, this love sick thing
I like serious relationships
And a girl like me don't stay single for long

'Cause every time a boyfriend and I break up
My world is crushed and I'm all alone
The love bug crawls right back up
And bites me and I'm back


Verse:
                    G D Em D 
Ooh, if there is a reason to call me a fool
          Am 
'Cause I love too hard
               D 
Are there any rules, baby?
              G D 
If this is a lesson
      Em D 
Baby teach me to behave
      Am 
Just tell me what I gotta do
 D 
Just to stay right next to you


Pre-chorus: 
    G D 
Oh I can't help it I'm just selfish
 Em D 
There’s no way that I could share you
 Am 
That would break my heart to pieces
 D 
Honestly the truth is 


Chorus:
                 G D Em D 
If I could just die in your arms
   Am 
I wouldn't mind
        D 
'Cause every time you touch me
        G D Em D 
I just die in your arms
           Am 
Oh but it feels so right
    D 
So baby baby baby please don't stop, boy


Bridge:
 Am Am7 
Basically I'm saying here
 Bm 
I can't live without my baby
 C D 
Loving you is so damn easy for me yeah
 Am Am7 
Ain't no need for contemplating
 Bm 
Promise you won't keep me waiting
 C D D7 
Tell me baby, I'm all that you need


Chorus:
                 G Em 
If I could just die in your arms
   Am 
I wouldn't mind
        D 
'Cause every time you touch me
        G Em 
I just die in your arms
           Am 
Oh but it feels so right
    D 
So baby baby baby please don't stop, boy

Outro:

 G D Em D Am D  
x4

Arms chords – Seabear V4

 Hey guys, figured this out a while ago and thought it might be useful.
chords used:  A E Cm# B 
he plays them as bar chords

 A E Cm# B              
You left your black gloves on my table
You left your dark horse in my stable
Thinking of a way, to get you to stay

And I promise to fight the wind and wait for you...
...are an owl, with tired eyes
I am a scarecrow in disguise

We often go out pacing
When all I want to do is stay inside and lookout the window...
...with you

There was a dead mouse in your arms
That was the moment that you lost your charm
An old bear paw, sitting in a jar
Under a tree that never grew any leaves

You shake my arms, you shake my hand
I fell asleep in your cobweb
And I'm turning off all the lights tonight
Saw you in a crowded bar, pale with hungry eyes

Looking At The Sun chords – Gramercy Arms V2

  Sam de Brunner
Tuning: Standard
Capo: 4
Chords relative to capo


Intro
 C C F C G 
Oh yeah I’m looking at the sun
        F C G 
Me and everyone
         C 
Looking at you


       C 
What’s new?
              F C G 
I guess I’ve never seen
    F C G 
A world so green
         C 
Here beside you


 F C G 
Ba ba ba ba ba ba ba ba
 F C G 
Ba ba ba ba ba ba ba ba  


      C F C G 
This day is the perfect day
                 F C G 
There’s nothing in our way
         C 
This is our time


   C F C G 
I know what I’m holding in my arms
         F C G 
Keep it safe and warm
              C 
Just you and me now


 F C G 
Ba ba ba ba ba ba ba ba  
 F C G 
Ba ba ba ba ba ba ba ba  
 F C G 
Ba ba ba ba ba ba ba ba  
 Am C G 
Ba ba ba ba ba ba ba ba  


    C 
Oh yeah
             F C G 
I’m looking at the sun
     F C G 
My darling young one
          C 
Here beside you


 C 
Right now
            F C G 
Before our world so green
                F C G 
Grows cold and changes scene
                    C 
And the nights get darker


 F C G 
Ba ba ba ba ba ba ba ba  
 F C G 
Ba ba ba ba ba ba ba ba  
 F C G 
Ba ba ba ba ba ba ba ba  
 Am C G 
Ba ba ba ba ba ba ba ba  


 C 
For now
             F C G 
I’m looking at the sun
              F C G 
Someday the rain might come
                C 
But I love the sunshine
 C 
Oh yeah

You Are Here chords – Lawrence Arms

 INTRO:
---

 Em Am Em D C Em Am Em Bm C 

VERSE part 1:
---

 Em 
Where you are is where you are,
 C 
and it's just the way it is.
 Em 
Days just keep rolling on,
 C 
they won't miss me when I'm gone.

Play INTRO

VERSE part 2:
---

 Em D 
I'm the chorus to that lonely street,
 Em D 
just footsteps fading from a dying beat.

 G Am Em 

CHORUS:
---

     C D Em 
The words don't come to me so easily.
 C D 
  Don't believe what you hear,
              Em G C 
until you've heard it from me.
     G D Em C 
The words don't come to me so easily.
     G D              ( Em  of intro)
The words don't come to me so easily.

Play INTRO

Play VERSE part 1

Most days I take the train from here to there then back to here.
Friends are friends, I guess, but friends are rare some talk but never hear.

Play Intro

Play VERSE part 2

I'm the chorus to your broken dreams,
just footsteps fleeing from a dying scene.

Play CHORUS

The words don't come to me so easily.
Don't believe what you hear,
until you've heard it from me.
The words don't come to me so easily.
The words don't come to me so easily.

Play INTRO

OUTRO:
---

 Em D C 
Outside my window the train is a friend just zipping by -
 Em D C 
I'll catch you when I catch you, man, maybe we can go for a ride.
 Em D C 
Outside my window the train is a friend just zipping by - 
 Em D C 
I'll catch you when I catch you, man, maybe we can go for a ride.
 Em D C 
Outside my window the train is a friend just zipping by -
 Em D C 
I'll catch you when I catch you, man, maybe we can go for a ride.
 Em D C 
Outside my window the train is a friend just zipping by -
 Em D C 
I'll catch you when I catch you, man.

Arms And Danger Tabs by Promise Ring

 Title: Arms and Danger
 Very Emergency
: Kris Johansen - krisjohansen@guitarsrule.com

Intro/Chorus

e----------------------------------------------------------------------|
B----------------------------------------------------------------------|
G---5-------7---10-----------------------------------------------------|
D---5---7---7---10-----------------------------------------------------|
A---3---7---5---8------------------------------------------------------|
E-------5--------------------------------------------------------------|


Verse

e----------------------------------------------------------------------|
B----------------------------------------------------------------------|
G------------------10--10-10-10-10-------------------------------------|
D---10--10-10-10---10--10-10-10-10-------------------------------------|
A---10--10-10-10---8---8--8--8--8--------------------------------------|
E---8---8--8--8--------------------------------------------------------|


"Hours before we go.."

e----------------------------------------------------------------------|
B----------------------------------------------------------------------|
G--3----5---10---------------------------------------------------------|
D--3----5---10----10--10--8-8-8-8--------------------------------------|
A--1----3---8-----10--10--8-8-8-8--------------------------------------|
E-----------------8---8---6-6-6-6--------------------------------------|

"still we'll not know"

e---------------------------------------------|------------------------|
B---------------------------------------------|------------------------|
G---------------------------------------------|------------------------|
D--10-10-10-10--10-10-10-10--7-7-7-7--5-5-5-5-|--3---5-----10----------|
A---8--8--8--8--7--7--7--7---5-5-5-5--3-3-3-3-|--1---3-----8-----------|
E---------------------------------------------|------------------------|

Lead under chorus

e----------------------------------------------------------------------|
B----------------------------------------------------------------------|
G----------------------------------------------------------------------|
D----------------------------------------------------------------------|
A--3---5/7--5--5/7-5--5/10---------------------------------------------| x2
E----------------------------------------------------------------------|

e----------------------------------------------------------------------|
B----------------------------------------------------------------------|
G------------7/9-7-----9-----------------------------------------------| x1
D----5/9--5------------------------------------------------------------|
A--3-------------------------------------------------------------------|
E----------------------------------------------------------------------|


No one could be happier for you.



No Arms Can Ever Hold You chords – The Bachelors

 No Arms Can Ever Hold You:The Bachelors.
#27 on BB Hot 100 on DECCA Records in
1965.


INTRO:  Eb 

#1.
 Eb Cm Fm Bb 
No arms can ever hold you like these arms of mine.
 Eb Cm Fm Bb 
No heart can ever love you like this heart of mine.
 Eb D F Bb 
My dreams can all come true if you'll care for me.
  Eb Bb 
(Care for me.)
      Cm Bb 
This love that I feel for you Was just meant to be.

#2.
    Eb Cm Fm Bb  
No lips can ever kiss you like these lips of mine.
    Eb Cm Fm G 
No one can ever offer What I offer you.
    Cm B Abm Fm Eb Fm 
My heart, my love are yours, til the end of tiiiime.
    Ab Bb Eb 
No arms can ever hold you like these arms of miiiine.

#3.
 B E C#m F#m B 
No lips can ever kiss you like these lips of mine.
 E C#m F#m Ab 
No one can ever offer, what I offer you.
    C#m F#m C F#m E F# 
My heart, my love, are yours til the end of tiiiime.
    A B E       
No arms can ever hold you like these arms oooooff miiiine.

OUTRO:
 C Am E C Am E 
Offffff miiiine..offffff miiiine..(Fade.)


A sixties smash from Kraziekhat.



Up In Arms chords – Hillsong United V2

 Verse 1:
    F C G 
A reckless love too wild to understand
    F C G 
Breathing the world to life in Your romance

Pre-chorus:
           A7 C 
So here I am
       G F A7 C 
Your love has got me up in arms again
           G F 
And this hope won't let me go

Chorus 1:
     C G 
My joy is boundless, my soul knows its worth
    A7 F 
In arms stretching wider, than my heart could ever fall

Verse 2:
 F C G 
You own the skies and still You want my heart
  F C G 
Casting Your throne aside to lift me up

Chorus 2:
  C G 
Your word is final, Your name above all
      A7 F 
The cross my reminder, Your love is forever

Finale:
              C G A7 
Cause here I am, Your love has got me up in arms again
           F 
And this hope won't let me go
        C G A7 
Here I am, Jesus take my life and all I have
           F 
Now this hope won't let me go