Tag: around

Hearts Dont Break Around Here Piano Chords by Ed Sheeran

[Verse 1]
G                               D
  She is the sweetest thing that I know
Em                       C                             G
  Should see the way she holds me when the lights go low
                        D              Em      C
  Shakes my soul like a pothole every time
G                      D         Em
  Took my heart upon a one way trip
                 C                  G
  Guess she went wandering off with it
                        D
  None like most women I know
Em               C
  This one will bring it back whole


[Pre-Chorus]
C         G       D                 Em
Daisies, daisies perched upon your forehead
       C     G       D
Oh my baby, lately I know


[Chorus]
            G                           D         Em
That every night I’ll kiss you, you’ll say in my ear
             C            G
Oh we’re in love, aren’t we?
               D   Em
Hands in your hair
             C        G
Fingers and thumbs, baby
                        D          Em
I feel safe when you’re holding me near
          C                        G
Love the way that you conquer your fear
                        D           C
You know hearts don’t break around here
               G   D     Em
Oh yeah, yeah, yeah
C                  G  D    Em    C
Yeah-yeah, yeah-yeah


[Verse 2]
G                           D
  She is the river flowin’ Orwell
Em              C
  And tin wind chimes used for doorbells
G                      D    Em                 C
  Fields and trees and her smell fill my lungs
G                       D
  Spend my summertime beside her
Em                    C
  And the rest of the year the same
G                               D
  She is the flint that sparks the lighter
Em                        C
  And the fuel that will hold the flame, oh


[Pre-Chorus]
C       G     D             Em
Roses, roses laid upon your bed spread, oh my
C         G        D
All this, all this I know


[Chorus]
            G                           D         Em
That every night I’ll kiss you, you’ll say in my ear
             C            G
Oh we’re in love, aren’t we?
               D   Em
Hands in your hair
             C        G
Fingers and thumbs, baby
                        D          Em
I feel safe when you’re holding me near
          C                        G
Love the way that you conquer your fear
          Em            D           C
You know hearts don’t break around here

Oh yeah, yeah, yeah



[Bridge]
C                   G     D
  Well, I’ve found love inside
       Em         D        C       
  The arms of the woman I know
C             G                 D
  She is the lighthouse in the night
            Em      D        C
  That will safely guide me home
C              G                D
  And I’m not scared of passing over
         Em         D        C  
  Or the thought of growing old
                          D
  ‘Cause from now until I go


[Chorus]
            G                           D         Em
That every night I’ll kiss you, you’ll say in my ear
             C    D      G
Oh we’re in love, aren’t we?
               D   Em
Hands in your hair
             C      D G
Fingers and thumbs, baby
                        D          Em
I feel safe when you’re holding me near
          C                        G
Love the way that you conquer your fear
         Em             D           C
You know hearts don’t break around here, oh yeah, yeah

            G                           D         Em
That every night I’ll kiss you, you’ll say in my ear
             C    D       G
Oh we’re in love, aren’t we?
               D   Em
Hands in your hair
             C      D  G
Fingers and thumbs, baby
                        D          Em
I feel safe when you’re holding me near
          C                        G
Love the way that you conquer your fear
         Em             D           C                    Em
You know hearts don’t break around here, oh yeah, yeah, yeah
         Em             D           C                    G
You know hearts don’t break around here, oh yeah, yeah, yeah

Arms Around A Memory chords – Hilary Duff

 Hilary Duff - Arms Around A Memory

Standard Tuning - No Capo

    Bb C Dm F Gm 
e|-1---0---1---1---3-|
B|-3---1---3---1---3-|
G|-3---0---2---2---3-|
D|-3---2---0---3---5-|
A|-1---3---x---3---5-|
E|-x---0---x---1---3-| 

 Dm Bb 
 Hot sweats in cold sweaters
 C Gm Dm 
 I feel a little lost since you've been gone
                 Bb 
 The blame helps you feel better
 C Gm Dm 
 Until you run across the cloud I'm on
 

                        Bb C 
 You're reaching for a hand that's in the past
                        Gm Dm 
 And beaches where the sand has turned to glass
                  Bb C 
 Your television life couldn't channel this love


 Gm Dm Bb F  
 You can't put your arms around a memory
 Gm Dm Bb F  
 You can't put your arms around a memory
              Dm Bb 
 And now I'm wishing you were here
                    C F 
 As much as I wish you would disappear
                Dm Bb 
 So will you remember to forget me?
                     F Dm Bb F C Dm Bb 
 You can't put your arms around a memory (a memory)
                     F Dm Bb F C Dm Bb 
 You can't put your arms around a memory (a memory)
                Dm Bb 
 So will you remember to forget me?
                     F Dm Bb F C Dm Bb 
 You can't put your arms around a memory (a memory)
 

 Dm Bb 
 A life boat in dead water
 C Gm Dm 
 A ship inside, a battle that we broke
             Bb 
 And we lost our true colours
 C Gm Dm 
 We opened every door until we closed


                       Bb C 
 And I could feel you in my air tonight
                     Gm Dm 
 Coming through the waves in satellites
               Bb C 
 But our city skies will never light up


 Gm Dm Bb F  
 You can't put your arms around a memory
 Gm Dm Bb F  
 You can't put your arms around a memory
              Dm Bb 
 And now I'm wishing you were here
                    C F 
 As much as I wish you would disappear
                Dm Bb 
 So will you remember to forget me?
                     F Dm Bb F C Dm Bb 
 You can't put your arms around a memory (a memory)
                     F Dm Bb F C Dm Bb 
 You can't put your arms around a memory (a memory)
                Dm Bb 
 So will you remember to forget me?
                     F Dm Bb F C Dm Bb 
 You can't put your arms around a memory (a memory)


 Dm Bb 
 Hot sweats in cold sweaters
 C Gm Dm 
 I feel a little lost since you've been gone



Enjoy!
-Sace

Sleep Around intro Tabs – Silverstein

 i hope its quite right ;)

Tuning drop D (Dadgbe)


it should be somethin like this

-------------------|
-------------------|
-77776999666-------|  x2
-77777777777-------|
-55555555555-------|
-00000000000-------|


--------------------|
--------------------|
-33-55-7777777------|   x2
-00-00-0000000------|
-44-66-9999999------|
-44-66-0000000------|

Sleep around ...

Ring Around The Moon chords – Melanie Safka

 Melanie Safka - Ring Around The Moon
 
 
## NOTE: These chords and key are based on the recording ##
##       Unplugged And Solo Powered       ##
 
 
CAPO: 4th Fret
 
 
 G D G               
Who will draw a ring around the moon
          C D                     
Who will draw a line from star to star
          G D G                    
Who will sing a penny's worth of song
    C D G                       
To tell them how in love we are
 
 
                     D G                   
I will draw a ring around the moon
        C D                            
I will draw a line from star to star
        G D G                    
I will sing a penny's worth of song
    C D G     
To tell them how in love we are

Rock Around With Ollie Vee Tabs – Buddy Holly V2

 ROCK AROUND WITH OLLIE VEE

As recorded by Buddy Holly
(From the 1958 Album THAT'LL BE THE DAY )


Words and Music by Sonny Curtis
 Slowhand


Gtr I (E A D G B E) - 'Sonny Curtis - Electric Guitar'


 Intro 1
  Q=197(8=s8)
                           A7
 4/4
  Gtr I
   E  E  E  E  E  E  E E    E      E  E  E  E  E  Q
|--9--9--9--9--9--9--9---|-12-----12-12-12-12-12-----|
|-10-10-10-10-10-10-10---|-13b14==13-13-13-13-13r----|
|------------------------|---------------------------|
|------------------------|---------------------------|
|------------------------|---------------------------|
|------------------------|---------------------------|


  D7                        D#°
   E  E  E  E  E  E  E  E    E  E  E  E  E  E  E E
|-------------------------|------------------------||
|-10-10-10-10-10-10-10-10-|-10-10-10-10-10-10-10---||
|--7--7--7--7--7--7--7--7-|--8--8--8--8--8--8--8---||
|-------------------------|------------------------||
|-------------------------|------------------------||
|-------------------------|------------------------||


 Intro 2
  A                E7                  A      D         A
  Q  Q  +E  E Q    E Q   E +E  Q   E   Q  E E E Q   E   E E E E +E  E Q
|----5--(5)------|-------------------|----5-----------|-5-----------------||
|-----------5----|---5---------5-----|----------7-----|-------5-(5)-5-----||
|----6--------6--|-7-----7-(7)-------|----6-------7---|-----6---------6---||
|-7------7-------|-----6---------6---|-7------7-------|-7--------7--------||
|----------------|-7--------7--------|----------------|-------------------||
|----------------|-------------------|----------------|-------------------||
  Q  Q   Q    Q    Q   Q    Q    Q     Q  Q   Q   Q     Q   Q    Q    Q


   Chorus
    A                A7
    Q  Q  +E  E Q    E Q   E +E  E E +E
||-----5--(5)------|---5-----------------|
||o-----------5----|-------5-(5)-8p5-(5)-|
||-----6--------6--|-----6---------6-----|
||--7------7-------|-7--------7----------|
||o----------------|---------------------|
||-----------------|---------------------|
    Q  Q   Q    Q    Q   Q    Q    Q


  D7               B7
  E Q   E E E Q    E  Q   E  Q    E   E
|---5-----5---5--|-7------7-------7-----|
|-------7---7----|---10-----10-------10-|
|-----5-------5--|------8------8-(8)----|
|-7-------7------|-9---------9----------|
|----------------|----------------------|
|----------------|----------------------|
  Q   Q   Q   Q    Q    Q    E E +Q


  A                E7                  A      D         A
  Q  Q  +E  E Q    E Q   E +E  Q   E   Q  E E E Q   E   E E E E +E  E Q
|----5--(5)------|-------------------|----5-----------|-5-----------------||
|-----------5----|---5---------5-----|----------7-----|-------5-(5)-5-----||
|----6--------6--|-7-----7-(7)-------|----6-------7---|-----6---------6---||
|-7------7-------|-----6---------6---|-7------7-------|-7--------7--------||
|----------------|-7--------7--------|----------------|-------------------||
|----------------|-------------------|----------------|-------------------||
  Q  Q   Q    Q    Q   Q    Q    Q     Q  Q   Q   Q     Q   Q    Q    Q


 1st & 3rd Verses
  A                A7
  Q  Q  +E  E Q    E Q   E +E  E E +E
|----5--(5)------|---5-----------------|
|-----------5----|-------5-(5)-8p5-(5)-|
|----6--------6--|-----6---------6-----|
|-7------7-------|-7--------7----------|
|----------------|---------------------|
|----------------|---------------------|
  Q  Q   Q    Q    Q   Q    Q    Q


  D7               B7
  E Q   E E E Q    E  Q   E  Q    E   E
|---5-----5---5--|-7------7-------7------|
|-------7---7----|---10-----10-------10--|
|-----5-------5--|------8------8-(8)-----|
|-7-------7------|-9---------9-----------|
|----------------|-----------------------|
|----------------|-----------------------|
  Q   Q   Q   Q    Q    Q    E E +Q


  A                B     E       A      D         A
  Q  Q  +E  E Q    Q  Q  Q  Q    Q  E E E Q   E   E E E E +E  E Q
|----5--(5)------|

Coming Around chords – Steve Earle

 Comin Around

Steve Earle

 D 
 
Early this mornin I was washin my face

                         
Thinkin bout goin to town

                                           
Sick and tired of hanging around this place

                    D7                 
Waitin on the blue-s to track me down

 G Gm D     
Bless my soul maybe Im comin a-round

      G Gm D    
Been lyin low but maybe Im comin ar-ound

 D A D D                                     
Ive been runnin nearly all of my life

                        
Far and as fast as I can

                                             
It may sound funny but Im thinking this might

                      D7        
Be about right where I came in

 G Gm D    
Well I dont know maybe Im comin ar-ound

       G Gm D    
Got a ways to go but maybe Im comin ar-ound

                  A D 
Finally layin my burden dow-n

(Harmonica Plays, just play like you would the verses)



Bridge


 A G D   
One fine day

 G A D   
Ill be f-ree

 A G D     
Til it comes

 G A G Gm D  
Ill go on     



 D                                                
My hearts a little ragged but its all that I got

                         
So Im gonna give it a try

                                    
Look out world Im comin ready or not

                      D7         
I dont wanna let you pass me by

 G Gm D    
Here I go m-aybe Im comin ar-ound

      G Gm D    
Im a little bit slow but maybe Im comin ar-ound

                  A D 
Finally layin my burden dow-n

The Wind Blew All Around Me chords – Mary Lou Lord

 #----------------------------------PLEASE NOTE---------------------------------#
#This file is the author's own work and represents their interpretation of the #
#song. You may only use this file for private study, scholarship, or research. #
#------------------------------------------------------------------------------#

The Wind Blew All Around Me
Mary Lou Lord
(Nick Saloman)
Baby Blue
2004

[intro]

 A 

[verse]

 A 
Look at me laughing
Look at me joking
     D 
I'm having such fun
 A 
Look at me screaming
Look at me choking
           D 
I've been overcome
 A E 
Look at me hang from your windowsill
     Bm D 
And look at me stand on the top of your hill
    A E Bm F#m         
My voice rang out like a dentist's drill
         D A 
And the wind blew all around me

[verse]

Look at me dancing
Look at me dying
My muscles have shook me
Look at me sleeping
Look at me flying
Way out of my body
Look at my plane, should we go for a spin?
And look at the kids asking where we've been
You took the controls and I stood on the wing
And the wind blew all around me

[chorus]

 A D 
All around
      A 
All around
      D 
All around
      F#m 
All around
 E 
Yeah...

[lead/verse]

 A D A D A E Bm D A E Bm F#m D A 

[verse]

Look at me aging
Look at me shrinking
I feel the same
And look at me smoking
Look at me drinking
Tell me, what's my name?
Look at me lying on the golden sand
And look at this note I got here in my hand
It says I lost my gig to a tribute band
And the wind blew all around me

 A D 
All around
      A 
All around
      D 
All around
      A 
All around
      D 
All around
      F#m E 
All around

         D A 
And the wind blew all around me  (X3)


27 January 2014
03 February 2014

Studio Soledad
http://sites.google.com/site/studiosoledad/
studiosoledad

Throw Your Arms Around Me chords – Summer Fiction

 Capo on 4. Listen for timing. Standard chords. Let me know for improvements. Works 
well to sing with :)

Intro:

 G G D G G D Em Em D Em Em D C C D D G G D G G 

VERSE:
      D G D G 
He broke your heart
       D Em Em D Em Em D 
In fifteen places.
       C C D 
Remember faces
                       G D G        
But not the names
      D G D G 
Right from the start
       D Em Em D Em Em D 
Your warm embraces
       C C D G G D G G 
But time erases and people change

     
CHORUS
      C D Em Em D Em Em      
Come and I’ll make you see
       C D G G D G G 
My darling throw your arms around me

REPEAT VERSE CHORDS

Now that he’s back
In your good graces
Your lipstick traces
Make me afraid
I broke my arm
Running the bases
Tripped over laces
Cut by the blade

      C D Em Em D Em Em      
You whispered to me softly
       C D G G D G G 
My darling throw your arms around me


Interlude:  G G D G G Em Em D Em Em C C D D G G C D Em Em D Em Em      
Hold on to me tightly
       C D Em Em D Em Em 
And darling, throw your arms around me
       C D G G D G G 
My darling throw your arms around me

Around The Bend Tabs by Pearl Jam V2

 album version

-|--------------------------|----0-------------------------2-----|------------|
-|-7--7--7--7-7--5--2--5--3-|-7----7--7-7--5--2--5--3------------|------------|
-|-6----------6--4--0--4--2-|-6---------6--4--0--4--2--------2-0-|------------|
-|-7----------7--5--2--5--0-|-7---------7--5--2--5--0------------|------------|
-|--------------------------|------------------------------------|------------|
-|--------------------------|------------------------------------|------------|
 G1, Intro, Verse

-|-----------------------0-0h2---3-2-0----|-----------------------3-2-0-|-----|
-|-7----7--5--2--5--3------3-----------/7-|-7----7--5--2--5--3----------|-----|
-|-6----6--4--0--4--2---------------------|-6----6--4--0--4--2----------|-----|
-|-7----7--5--2--5--0---------------------|-7----7--5--2--5--0----------|-----|
-|----------------------------------------|-----------------------------|-----|
-|----------------------------------------|-----------------------------|-----|


-|-------------------------0h2---3-2-0-|---------------------0-------0---|----|
-|-7----7--5--2--5--3--3---3-----------|-7----7--5--2--5--3----3--3----3-|----|
-|-6----6--4--0--4--2------------------|-6----6--4--0--4--2--------------|----|
-|-7----7--5--2--5--0----0-------------|-7----7--5--2--5--0--------------|----|
-|-------------------------------------|---------------------------------|----|
-|-------------------------------------|---------------------------------|----|


-|---------------------|------------|-----------------------------------------|
-|-7----7--5--2--5--3--|------------|-----------------------------------------|
-|-6----6--4--0--4--2--|--0---------|-----------------------------------------|
-|-7----7--5--2--5--0--|--0---2--3--|-----------------------------------------|
-|---------------------|------2--1--|-----------------------------------------|
-|---------------------|------------|-----------------------------------------|
                        Chorus

-|-----0----------------------0-0h2-----2h3p2-0---|---------------------------|
-|--7----7--7-7--5--2--5--3-----3---3-----------3-|---------------------------|
-|--6---------6--4--0--4--2-----------2-----------|---------------------------|
-|--7---------7--5--2--5--0-----------------------|---------------------------|
-|------------------------------------------------|---------------------------|
-|------------------------------------------------|---------------------------|


-|----0---------------------0-2--3-2-0-|---------------------0----3-2-0-|-----|
-|-7----7--7-7--5--2--5--3-------------|-7---7--5--2---3---3----3-------|-----|
-|-6---------6--4--0--4--2-------------|-6---6--4--0---2----------------|-----|
-|-7---------7--5--2--5--0-------------|-7---7--5--2---0----------------|-----|
-|-------------------------------------|--------------------------------|-----|
-|-------------------------------------|--------------------------------|-----|


-|--------------------------2-3-2-0-|--------------------0------3-3-2-0-|-----|
-|-7--7-7-7--5--2--5--3--3----------|-7---7--5--2--5--3----3--3---------|-----|
-|-6------6--4--0--4--2-------------|-6---6--4--0--4--2-----------------|-----|
-|-7------7--5--2--5--0-------------|-7---7--5--2--5--0-----------------|-----|
-|----------------------------------|-----------------------------------|-----|
-|----------------------------------|-----------------------------------|-----|


-|------------------------|---------------|-----------------------------------|
-|-7---7--5--2--5--3--3-3-|---3-3---------|-----------------------------------|
-|-6---6--4--0--4--2------|-0-------------|-----------------------------------|
-|-7---7--5--2--5--0------|-0-----0-2--3--|-----------------------------------|
-|------------------------|---------2--1--|-----------------------------------|
-|------------------------|---------------|-----------------------------------|
            

Stick Around chords – Watercolor V2

 I just made this when I was bored haha. I'm not sure how accurate this is (I saw 
in their live performance that the chords were quite different), but it sounds like the song to me. 
Feel free to leave comments and suggestions! 

Just to note: this is my first submission on here, so I'm pretty new at this. Anyways, enjoy!


(INTRO)

 D A Em G 

(VERSE 1)

 D A                       
Sneaking out, pick me up on a Friday night
 Em G                           
We don't know where to go but we'll be alright
 D A Em 
Your hand in mine, your foot on drive
 G 
Nothing could kill this vibe
 D A                           
Breaking in through the fence to the old arcade
 Em G                  
Your favorite game, always the same, play the night away
 D A Em 
Your hand in mine, you're by my side
 G 
Still we run out of time


 Em G 
Doesn't matter where we go
                       D 
We could run away
                             A Em 
As long as we're together it's okay
                             G 
It feels like just a dream
                        D A 
But I'm still awake and baby nothing's changing



(CHORUS)

 D A 
Everybody says they're so messed up
 Em G D 
But nobody knows I'm so in love with you
         A Em 
And all you do
 G 
All that really matters is
 D A 
When we are together my heart's on fire
 Em G            
Breathing you in, you take me higher
 Em D G 
And I'm never coming down
             A 
I really hope you stick around


Instrumental:   D A 

(VERSE 2)

 D A 
All my friends think you're weird and they're probably right
 Em G 
Not a thing that'll change

We're two of a kind
 D A Em 
The way you talk when you're asleep
 G 
You're so perfect to me

 Em G 
Doesn't matter where we go
                       D 
We could run away
                             A Em 
As long as we're together it's okay
                             G 
It feels like just a dream
                        D A 
But I'm still awake and baby nothing's changing



(CHORUS)

 D A 
Everybody says they're so messed up
 Em G D 
But nobody knows I'm so in love with you
         A Em 
And all you do
 G 
All that really matters is
 D A 
When we are together my heart's on fire
 Em G            
Breathing you in, you take me higher
 Em D G 
And I'm never coming down
             A 
I really hope you stick around

(THIS PART IS NOT CORRECT; I JUST PLAY IT THIS WAY ON MY ACOUSTIC)
 D A Em G  x2

 D A 
Every night, lie awake, You're stuck on my mind
 Em G 
Really hope that you think about me all the time
 D A Em 
I never want to let you go
 G 
No

(CHORUS)

 D A 
Everybody says they're so messed up
 Em G D 
But n

Stick Around chords – Watercolor

 Capo 8

Intro:  G - Em - C - Em - G - D - Em G 
Sneaking out, pick me up on a Friday night
 C 
We don't know where to go but we'll be alright
 Em D C 
Your hand in mine, your foot on drive
 C 
Nothing could kill this vibe

 G 
Breaking in through the fence to the old arcade
 C 
Your favorite game always the same, play the night away
 Em D C 
Your hand in mine, you're by my side
 C 
Still we run out of time

 Am Em 
  Doesn't matter where we go
               G 
We could run away
                    D C 
As long as we're together it's okay

 C Em   
  Feels like just a dream
                G 
But I'm still awake
            D 
And baby, nothings changing


 C Em 
Everybody says were so messed up
 C G Em 
But nobody knows I'm so in love with you
     G C 
And all you do

 G 
All that really matters is
 C Em 
When we are together, my heart's on fire
 C G Am 
Breathing you in, you take me higher
         Em G 
And I'm never coming down
          D 
I really hope you stick around

 G - Em - C - Em - G - D - Em G  
All my friends think you're weird
and they're probably right
 C 
I don't think that'll change,
We're two of a kind

 Em D C 
The way you talk when you're asleep
 C 
You're so perfect to me

 Am Em 
  Doesn't matter where we go
               G 
We could run away
                    D C 
As long as we're together it's okay

 C Em   
  Feels like just a dream
                G 
But I'm still awake
            D 
And baby, nothings changing


 C Em 
Everybody says were so messed up
 C G Em 
But nobody knows I'm so in love with you
     G C 
And all you do

 G 
All that really matters is
 C Em 
When we are together, my heart's on fire
 C G Am 
Breathing you in, you take me higher
         Em G 
And I'm never coming down
          D 
I really hope you stick around

 G - Em - C - Em - G - D - Em G  (hold)
Late at night, lie awake
You're stuck on my mind
 C  (hold)
I really hope that you think 
about me all the time

 Em D C  
I never wanna let you go, no

 C Em 
Everybody says were so messed up
 C G Em 
But nobody knows I'm so in love with you
     G C 
And all you do

 G 
All that really matters is
 C Em 
When we are together, my heart's on fire
 C G Am 
Breathing you in, you take me higher
         Em G 
And I'm never coming down
          D 
I really hope you stick around

 G - Em - C - Em - G - D - Em</span

Fooled Around And Fell In Love chords – Elvin Bishop V2

 D F#m 
I must have been through about a million girls
 C G 
I'd love 'em then I'd leave 'em alone
I didn't care how much they cried, no sir
Their tears left me cold as a stone

But then I fooled around and fell in love
I fooled around and fell in love, yes I did
I fooled around and fell in love, I fooled around and fell in love

It used to be when I'd see a girl that I liked

I'd get out my book and write down her name

But when the grass got a little greener over on the other side

I'd just tear out that page

I fooled around and fell in love

I fooled around and fell in love, since I met you baby

I fooled around and fell in love, I fooled around and fell in love

 A G 
MMMmm           Hmmmm
 Em Em7 Em6 A 
Ahhhhhhhhhhhhhhhhh
 Em Em7 Em6 A 
Ahhhhhhhhhhhhhhhhh

 D F#m 
Free, on my own is the way I used to be
 C G 
Ah, but since I met you baby, love's got a hold on me
It's got a hold on me now, I can't let go of you baby

I fooled around and fell in love
I fooled around and fell in love, oh yes I did
I fooled around, fooled around, fooled around, fooled around,
fooled around, fooled around, fell in love
Fooled around, fooled around, fooled around, fooled around,
fooled around, fooled around, fell in love
I fooled around, fell in love

I fell in love, I fell in love, yes I did

Tie The Rope Around Your Neck Tabs by Washya

 -------------------------------------------------------------------------------
                       Tie The Rope Around Your Neck - Washya
-------------------------------------------------------------------------------
Tuning: D Standard (DAFCGD)
Intro
D|--------------|   |----------------------|   |--------------|
A|--------------|   |----------------------|   |--------------|
F|-7777-777-7\\-|   |-10101010-101010-10\\-|   |--------------|
C|-7777-777-7\\-|   |-10101010-101010-10\\-|   |-5555-555-8\\-|
G|-5555-555-5\\-|   |-8-8-8-8--8-8-8--8-\\-|   |-5555-555-8\\-|
D|--------------|x3 |----------------------|x3 |-3333-333-6\\-|x1

Verses
D|-----------------------------------------------------------|
A|-----------------------------------------------------------|
F|-----7-----77--777--------5----5-5-55-------3-----3-33-3---|
C|-----7-----77--777--------5----5-5-55-------3-----3-33-3-2-|
G|-555-5-5-5-55-5555\333-3-33-33-3-3-33\111-1-1-111-1-11-1-2-|
D|-555-5-5-5-55-5555\333-3-33-33-3-3-33\111-1-1-111-1-11-1-0-| 
PM ***   * *    *    *** * *  **        *** *   ***        

Chorus
D|----------------------------------------------------------------------|
A|----------------------------------------------------------------------|
F|---------------------------------10101010101010101010\8888888888------|
C|-7777777777/10101010101010101010-10101010101010101010\8888888888-88\\-|
G|-7777777777/10101010101010101010-8-8-8-8-8-8-8-8-8-8-\6666666666-88\\-|
C|-5555555555/8-8-8-8-8-8-8-8-8-8----------------------------------66\\-|

Stick Around chords – Martin Sexton

 Stick Around - Martin Sexton


Intro-  C C Em 
Love is what I feel
                Am7 G 
When you walk into my living room
   F Am 
I fall head over heels
                G G  -  Em 
When you whisper in my ear
 C Em 
But I did not know what to think
            Am7            
When I found your makeup
          G F 
In my drawer and your things
                Am 
Under my sink
         G 
But I guess its pretty clear

             F 
Now Im walking around
              G 
With my head in the clouds
             Am D7 
And my feet two feet off the ground
                        F G 
Sure would be nice if you decide
              C 
To stick around
(Stick around)


 C Em 
Fear is what made me say
      Am7 G 
The stupid thing I said that day
          F Am 
And I tried to take it all back
           G                   
With a copy of Abbey Road
           C Em 
It was my, old pride
         Am7 G 
I was so uncool but you let it slide
        F Am 
And yes, I gotta confess
               G 
You have opened up my heart

             F G 
Now its nothing short of amazing
                            Am D7 
They way you can hang when I freak out
                       Dm Em 
So it would be nice if you decide
             Am 
To stick around
         D 
Stick around
         F 
Stick around
         C 
Stick around

Oooos -  C  -  Am  -  C  -  Dm  -  Bm  -  C  -  Am  -  F  -  D  -  G F 
Now Im walking around
              G 
With my head in the clouds
             Am D 
And my feet two feet off the ground
                          F G 
And it would be nice if you decide
                         F G 
I wouldnt think twice if you decide
                        F G 
Sure would be nice if you decide
             C C  -  Am  -  Em  -  Am  -  C  -  Dm  -  G  -  C  -  Am  -  C  -  F  -  Am  -  D  -  G 
To stick around

End on  C 

Comment for changes

Around The Bend chords – Urban Ego

 Title: Around The Bend
 Urban Ego
 Something Left Undone

There is an additional chords between G and Em. I don't know what it is but it 
goes like this: 320002 (like G, but with an F# on the last string - if you know 
what it is, please comment!) 
I marked it as a (G) in brackets, I'll change it as soon as I find out what it is.

There might be some more mistakes, but I think it's not that bad. Hope you enjoy!


Intro:  G     ( G )     G     ( G )

 G               ( G )              Em 
A thought from you can make my day

    C G 
As bright as the sun can be

         ( G )             Em 
Way back then, here and now

       C Em 
We're standing as you can see



              G Em 
And when the stars collide, I'm here

             G Em 
If ever the sky should disappear

             G 
You will be safe from harm coz

 C 
When You feel so cold and worn

      D 
Well I'll be here from dusk 'till dawn



 G D 
Please hold my hand

              Em C 
Coz I'm your friend


 G D 
Life may come to an end

                Em C 
We'll leave as friends



 G            ( G )              Em 
A song from you can make my way

    C G 
As tough as the world can be

            ( G )          Em 
A brand new start, a memory

          C Em 
There's nothing to beat us see!



              G Em 
And when the stars collide, I'm here

             G Em 
If ever the pain should add all fears

             G            
You will be safe from harm coz

 C 
When you feel you're not your kind

      D 
Then I'll be there come rain or shine



 G D 
Please hold my hand

              Em C 
Coz I'm your friend


 G D 
Life may come to an end

                Em C 
We'll leave as friends



 G 
Find me there around the bend

 D 
Might as well be you my friend

     Em C 
You know, you know, you know

 G 
There are times I'll break or bend

 D 
You will always lend a hand

   Em C 
I know, I know, I know



 G D 
Please hold my hand

                Em C 
We'll dream my friend

 G D 
Life could break you in two

                   Em C 
But friends don't do

 G D 
Please hold my hand

              Em C 
When I can't stand

 G D 
Life might come to an end

                Em C 
We'll still be friends



 G 
Find me there around the bend

 D 
Might as well be you my friend

     Em C 
You know, you know, you know

 G 
You'll be there around the bend

 D 
You will always lend a hand

   Em C 
I know, I know, I know



 G D 
Please hold my hand

                Em C 
We'll dream my friend

 G D 
Life could break you in two

                   Em C 
But friends don't do, 

     

Fuck Around All Night chords – Pepper

 : michaeljtomey
email me for any questions at michaeljtomey



Chords Used:
       B A E Abm Gb Dbm 
e|----7--------5-------0--------4--------2--------4---------|
b|----7--------5-------0--------4--------2--------5---------|
g|----8--------6-------1--------4--------3--------6---------|
d|----9--------7-------2--------6--------4--------6---------|
a|----9--------7-------2--------6--------4--------4---------|
e|----7--------5-------0--------4--------2--------x---------|


Fuck Around (All Night)
Pepper


e|---------------------------|----------------------------|
B|---------------------------|--------------------7-------|
G|----------------9----8-----|----------------9p8---8-----|
D|----------9---------9------|----------9-----------------|
A|------7h9------9-----------|------7h9------9------------|
E|--7------------------------|--7-------------------------|first time only



e|---------------------------|----------------------------|
B|---------------------------|--------------------7-------|
G|----------------9----8-----|----------------9p8---9p8---|
D|----------9---------9------|----------9-----------------|
A|------7h9------9-----------|------7h9------9------------|
E|--7------------------------|--7-------------------------|

e|---------------------------|----------------------------|
B|---------------------------|--------------------7-------|
G|----------------9----8-----|----------------9p8---9p8---|
D|----------9---------9------|----------9-----------------|
A|------7h9------9-----------|------7h9------9------------|
E|--5------------------------|--5-------------------------|


 B 
Ooh she give me something right 
 B 
Ooh just let me in your life 
 A 
Give me something more 
 A 
Cause I need to score
 B 
Ooh and now you're doing it right 
 B 
Ooh I love how you twist that knife
 A 
Give me sweat and war
 A 
Worth fighting for

 B 
Tell me if you're satisfied I need to feed your appetite
 B A 
Amplified by the night ready for the milky white moon till the sun comes up
 E 
Cause I don't want to fuck around unless you want to fuck around


 B E 
(all night) I'll make you feel good
 B E 
(all night) darling cause you want me to
 B E 
(all right) this ain't a game 
 A E 
Cause I don't want to fuck around unless you want to fuck around
 B E 
(all night) I love your attitude
 B E 
(all night) I'm right on top of you
 B E 
(all right) this ain't a game 
 A E 
Cause I don't want to fuck around unless you want to fuck around

e|---7------X-X-----------------------------------|
B|---7------X-X-----------------------------------|
G|---8------9/16--16--16--16--16--16--------------|
D|---9------9/16--16--16--16--16--16--------------|
A|---9------7/14--14--14--14--14--14--------------|
E|---7------X-X-----------------------------------|

 B 
Ooh sweeter than Mary Jane
 B 
Ooh higher than an airplane
 A 
Anywhere you want to go
 A 
Bumpin from coast to coast
 B 
Ooh them boys are lookin at you
 B 
Ooh but I got you
 A 
And I'm taking you all the way
 A 
Time to blow you away

 B 
Cause I could be your worst habit if you let me do my magic
 B 
And I could fly at altitudes and you cant even handle it
 A 
Do it till the sun comes up
 E 
Cause I don't want to fuck around unless you want to fuck around


 B<

Route Around Acoustic chords – Rebelution

 song in EMAJ 
Listen to the audio to hear the Descending Bass between Chords provided.
Really easy to play, Have FUN!!


 Amaj G#m F#m     
Lately I've tried to fall asleep but I struggle,
 G#m C#m 
I tell you your the missing piece of my puzzle,
     Amaj G#m F#m      
And four A.M. Has got me more or less troubled,
 G#m C#m 
What I would do with my lover and,
 Amaj F#m G#m 
All day, I share the memories in sound-waves,
 C#m Amaj 
Across the country to where you lay,
 F#m G#m C#m 
Right on your side, no need to feel alone
not tonight because,

Chorus

 Amaj F#m 
We can try to find a route around,
 G#m C#m Amaj 
All my troubles fading out now,
 F#m G#m 
Time to pick it up now,
 C#m 
Things are pickin up now,

 Amaj F#m 
We can try to find a route around,
 G#m C#m Amaj 
All my troubles fading out now,
 F#m G#m 
Time to pick it up now,
 C#m 
Things are pickin up now,


 Amaj G#m F#m 
Some people say to fight for everything you want,
 G#m C#m 
But all I need is food, water, air, and love,
 Amaj G#m F#m 
Let's share the four things we love so very much,
 G#m C#m Bmaj 
And show the world that less is enough Because,
 Amaj G#m F#m G#m 
Always, ...   we'll stay grounded in our own way,
 C#m B Amaj 
Control the temple till where we sway,
 F#m G#m C#m 
Right by my side, no need to feel alone not in
LIFE because,


Chorus

We can try to find a route around,
All my troubles fading out now,
Time to pick it up now,
Things are pickin up now,
We can try to find a route around, (a route around)
All my troubles fading out now,
Time to pick it up now,
Things are pickin up now.

Things are pickin up now

Living Around Tabs by Promise Ring

 Title: Living Around
 Very Emergency
: Kris Johansen - krisjohansen@guitarsrule.com


Intro
             x3               
e------------------------|---------------------------------------------|
B------------------------|---------------------------------------------|
G---7--7--7--7-----------|---4--4--4--4--------------------------------|
D---7--7--7--7--7-7-7-7--|---5--5--5--5--------------------------------|
A---5--5--5--5--7-7-7-7--|---5--5--5--5--------------------------------|
E---------------5-5-5-5--|---3--3--3--3--------------------------------|

Verse 


e--------------------0------3--2--0------------------------------------|
B--3~---------3-2h3----3------------3----------------------------------|
G--2~-------2--------------------------2-------------------------------|
D--0------0-------------------------------0----------------------------|
A----------------------------------------------------------------------|
E----------------------------------------------------------------------|


Pre-chorus "I guess this just fits..."


e----------------------------------------------------------------------|
B----------------------------------------------------------------------|
G---7-7-7-7--6--6--6--6--------------6--6--6--6--7--7--7--7--6--6--6--6|
D---7-7-7-7--7--7--7--7--9--9--9--9--7--7--7--7--7--7--7--7--7--7--7--7|
A---5-5-5-5--7--7--7--7--9--9--9--9--7--7--7--7--5--5--5--5--7--7--7--7|
E------------5--5--5--5--7--7--7--7--5--5--5--5--------------5--5--5--5|

e----------------------------------------------------------------------|
B----------------------------------------------------------------------|
G---4--4--4--4--4--4--4--4---------------------------------------------|
D---5--5--5--5--5--5--5--5---------------------------------------------|
A---5--5--5--5--5--5--5--5---------------------------------------------|
E---3--3--3--3--3--3--3--3---------------------------------------------|


lead

e----------------------------------------------------------------------|
B----------------------------------------------------------------------|
G--7-6--7/9--7--7-6-7/9--7---7--6-7-9-9/11--9--------------------------|
D----------------------------------------------------------------------|
A----------------------------------------------------------------------|
E----------------------------------------------------------------------|

e----------------------------------------------------------------------|
B----------------------------------------------------------------------|
G--7-6--7/9--7--7-6-7/9--7---7--6------------9-------------------------|
D----------------------------------7-7/9--7----------------------------|
A----------------------------------------------------------------------|
E----------------------------------------------------------------------|


e----------------------------------------------------------------------|
B----------------------------------------------------------------------|
G--7-6--7/9--7--7-6-7/9--7---7--6-7-9-9/11--9--------------------------|
D----------------------------------------------------------------------|
A----------------------------------------------------------------------|
E----------------------------------------------------------------------|

e----------------------------------------------------------------------|
B----------------------------------------------------------------------|
G--7-6--7/9--7--7-6-7/9--7---7--6-7-9-9/11--9---7----4-----------------|
D----------------------------------------------------------------------|
A----------------------------------------------------------------------|
E----------------------------------------------------------------------|


Chorus "Its the end of the world today you dropped a bomb..."
       
e-------------------------------------|------------------|-------------|
B-------------------------------------|------------------|---

Coming Around Again chords – Carly Simon

 Carly Simon - Coming Around Again

Intro  
   C Am F C 
---------------|--------------|--------------|----3--3--3--3--3-|
----3--1--0--1-|---3--1--0--1-|---3--1--0--1-|-1----------------|
--0------------|-2------------|-2------------|-0-0--0--0--0--0--|
--2------------|-2------------|-3---3--3--3--|-2----------------|
--3---3--3--3--|-0---0--0--0--|--------------|-3----------------|
---------------|--------------|--------------|------------------|

        
Verse 1
 C Am F C 
Baby sneezes, mommy pleases, daddy breezes in
                 Am F C 
So good on paper, so romantic, but so bewildering

Chorus
 F Dm 
I know nothing stays the same
                                      Bb 
But if you're willing to play the game
                         F    
It's coming around again
     Eb Dsus D           
So don't mind if I fall apart
          F Gsus 
There's more room in a broken heart

Verse 2
      C Am F C 
You pay the grocer, fix the toaster, kiss the host goodbye
                          Am F C 
Then you break the window, burn the soufflé, scream a lullaby

Chorus
 F Dm 
I know nothing stays the same
                                      Bb 
But if you're willing to play the game
                         F    
It's coming around again
     Eb Dsus D           
So don't mind if I fall apart
          F Gsus 
There's more room in a broken heart

Verse 3
 C Am F C 
And I believe in love but what else can I do? I'm so in love with you.



Chorus 
 F Dm Bb 
I know nothing stays the same but if you're willing to play the game.
                               F 
It will be coming around again


 F Dm Bb 
I know nothing stays the same but if you're willing to play the game.
                               F 
It will be coming around again

(repeat ad lib voc)

When She Comes Around chords – Ben Rector V5

 Tuning: EADGBD

Intro:    G  \\\    C  \\\ \\\ \\\     G  \\\    D  \\\ \\\ \\\
          G  \\\    C  \\\ \\\ \\\     D  \\\    G  \\\ \\\ \\\ \\\

Verse 1 (High Chord Inversions)
          G C G D 
Am I the noticed, and you've found truth
          G C D G 
And with both fists, I'm needing you
      G C G D 
I've got doubts, and they talk so loud
    G C D G     To Chorus:  G / B C 
In silence is where you're found

Chorus
 C G D G/B 
  When she comes around, I'll be ready
 C G D 
  When she comes around, I'll be strong
 Em C D 
  Since she's been around, let me be forgetting
       G D C G/B Am Em D   ( Dsus D )
  The reasons she's been gone

Verse 2 (Lower Inversions)
        G Cmaj9/G G D 
And my memory,       it works in spite
           G/B C D G 
It's been remembering more wrong than right
    G Cmaj9/G G D/A 
My heart beats like an anchor filled
 G/B Cmaj9/G D/A G G/B 
Filled with the memories that bind my will

Chorus 2
 C G D G/B 
  When she comes around, I'll be ready
 C G D Em C 
  When she comes around, I'll be strong,   Na-na-na,  na-na-na Na
 Em C D                                
  Since she's been around, let me be forgetting
       G/B D C G/B Am Em D 
  The reasons she's been gone

                   G C G D 
'Cause now she's home
                   G C D G