Tag: art

All I Know chords – Art Garfunkel Vsion 3

 I play it with capo @ 6

intro
%  G C D G G C D G D C D Cmaj7 G C Bm D G G C 
I bruise you
 D G 
You bruise me
 G C D G 
We both bruise too easily
     D C D Cmaj7  %    G 
Too easily to let it show
    C Bm D7 G 
I love you and that's all I know

 G C 
All my plans
 D G 
Have fallen through
 G C D G 
All my plans depend on you
     D C D Cmaj7  %    G  
Depend on you to help them grow
    C Bm D7 G 
I love you and that's all I know

        Chorus 
          Bm Em 
When the singer's gone
   | G D C D Cmaj7 Cadd9 
Let the song go on...


 G C 
But the ending always 
 D G 
comes at last
 G C D G 
Endings always come too fast
     D C D Cmaj7  %    G 
They come too fast  But they pass to slow
    C Bm D7 G 
I love you and that's all I know

  Em Dm Em C 
When the singer's gone, let the song go on.
       
 F C G C 
It's a fine line between the darkness and the dawn.
     
 F C F G 
They say in the darkest night, there's a light beyond.

 G C F G C F G C 
But the ending always comes at last. Endings always come too fast.
      G Dm G F 
They come too fast, but they pass too slow.
 C F G C F 
I love you and that's all       I know.
              C G F 
That's all I know.
              C G F 
That's all I know-oh,  oh-oh.

Outtro:  Repeat and fade    C    G      F
                            Oh   oh,    oh.

A Childs Guide To Good And Evil chords – West Coast Pop Art Experimental Band

 ---------------------------------------------------------------------------
The West Coast Pop Art Experimental Band - A Child's Guide to Good and Evil
---------------------------------------------------------------------------
                      : gutturalguitar
                      Tuning: standard

                      A Child's Guide to Good and Evil (1968)
                      (Bob Markley, Shaun Harris)

                      From: "Volume 3: A Child's Guide to Good and Evil"
---------------------------------------------------------------------------
electric sitar riff (sometimes varies slightly):
e|-10-10--8-7h8p7----------------------------------|
B|------10-------10-8-11-10--10-10h11p10h11-10-----|
G|-------------------------10-----------------10---|
D|----------------------------------------------12-|
A|-------------------------------------------------|
E|-------------------------------------------------|

guitar riff #1:
e|-----0---0---0---0----|
B|--7h8-8p7-7/5-5/3-3/5-|
G|----------------------|
D|----------------------|
A|----------------------|
E|-0--------------------|

guitar riff #2 (sometimes varies slightly):
e|----------------------|
B|--7-8-10-10/12-10-8p7-|
G|-9--------------------|
D|----------------------|
A|----------------------|
E|----------------------|
---------------------------------------------------------------------------

(guitar riff #1)

(electric sitar riff)

|  D/F#  |  G  |  A#  |  F  |  D/F#  |

(guitar riffs #1 and #2)

take my hand, and run away with me

through the forests, until the leaves and trees slow us down

a vampire bat will suck blood from our hands

a dog with rabies will bite us

rats will run up your legs, but nothing will matter

(electric sitar riff)

|  D/F#  |  G  |  A#  |  F  |  D/F#  |

(guitar riffs #1 and #2)

after the doors of many strange rooms have been bolted and locked

when you come back, dragging your daydreams behind you

I'll give you a new shiny face, and a yellow brick road

the rest of the world is wrong, and don't let anyone change you

(electric sitar riff)

 D/F# G A# F D/F# 

evil doesn't exist anymore, except for the war

(electric sitar riff)

 D/F# G A# F D/F# 

evil doesn't exist anymore, except for the war 
(I lick my lips for the war, and my tongue)

(electric sitar riff)

 D/F# G A# F D/F# 

evil doesn't exist anymore, except for the war
(and I'll be you, and you'll be me, and we'll be one)

(electric sitar riff)

 D/F# G A# F D/F# 

evil doesn't exist anymore, except for the war
(and nothing will bother us, no, no, no, no)

How Great Thou Art chords – Randy Travis

 STANDARD TUNING

VERSE 1:  
           F Bb  
O Lord my God, when I in awesome won - der 
          F C7 F C7 
Consider all the works Thy hands have made, 
           F Bb  
I see the stars, I hear the mighty thun - der, 
                      F C7 F  
Thy power through - out the uni - verse displayed. 


CHORUS
                        Bb F  
Then sings my soul, my Savior God to Thee; 
                 C7 F C7 
How great Thou art! How great Thou art! 
               F Bb F  
Then sings my soul, my Savior God to Thee; 
                Gm C7 F C7 
How great Thou art! How great Thou art! 


VERSE 2:
                    F Bb  
When Christ shall come with shout of accla - ma - tion 
             F C7 F C7 
And take me home, what joy shall fill my heart! 
             F Bb F               
Then I shall bow in humble ado - ra - tion And there proclaim, 
    C7 F  
my God how great Thou art!


REPEAT CHORUS

How Thou Art chords – Praise And Worship

 F/G C F F#dim 
Oh Lord my God, when I in awesome wonder
          C/G F/G G C F/G 
Consider all the worlds Thy hands have made
           C F F#dim 
I see the stars, I hear the rolling thunder
                  C/G F/G G C F/G 
Thy pow'r throughout the universe displayed


Refrain:
               C C/E F C 
Then sings my soul  my Savior God to Thee
                Dm7 G F/G C F/G 
How great Thou art, how great Thou art
               C C/E F C/E Dm7 C 
Then sings my soul  my Savior God to Thee
                Dm7 F/G C 
How great Thou art, how great Thou art

Cold Art Of War album Tabs by Washya

 -----------------------------------------------------------------------------
                           Cold Art Of War (Album) - Washya
-----------------------------------------------------------------------------
Tuning: Drop C (Whole Album)
1. Cold Art Of War 
Tuning: Drop C (DAFCGC)
Intro
D|-----------------------------------------------------|
A|-----------------------------------------------------|
F|-----------------------------------------------------|
C|-----------------------------------------------------|
G|-----------------------------------------------------|
C|-0000006666665555511111111-0000006666665555551111111-|x4
PM ************************* ************************* 

Part 2 (Chorus)
D|-----------------------------------------------|
A|-----------------------------------------------|
F|-----------------------------------------------|
C|-----------------------------------------------|
G|-000000066666555551111110000006666655555511111-|
C|-000000066666555551111110000006666655555511111-|x2

Verses
D|-------------------------------------------------------|
A|-------------------------------------------------------|
F|-------------------------------------------------------|
C|-------------------------------------------------------|
G|-1-0-1-0-1-0-1-0-0000-11-0-1-0-2\1-0-1-2\1-0-1-1-0-1-0-|
C|-1-0-1-0-1-0-1-0-0000-11-0-1-0-2\1-0-1-2\1-0-1-1-0-1-0-|

Interlude
D|----------------------------------|
A|----------------------------------|
F|----------------------------------|
C|----------------------------------|
G|-1143-143-143-143-143-1143-0-1-3~-|
C|-1143-143-143-143-143-1143-0-1-3~-|


2. Cold Shadows 
Tuning: Drop C (DAFCGC)
Intro
D|-------------------------------------------------------------|
A|-------------------------------------------------------------|
F|-------------------------------------------------------------|
C|-------------------------------------------------------------|
G|-00-00-0000-00-00-00-0000-00-00-00-0000-00-00-00-0000-00-1-0-|
C|-00-00-0000-00-00-00-0000-00-00-00-0000-00-00-00-0000-00-1-0-|x2
PM ** ** **** ** ** ** **** ** ** ** **** ** ** ** **** **   

Verses
D|--------------------------------------|
A|--------13b--------15b--------13b-----|
F|--------------------------------------|
C|--------15b--------13b--------11b-----|
G|-1-0-xx-----1-0-xx-----1-0-xx-----2\1-|
C|-1-0-xx-----1-0-xx-----1-0-xx-----2\1-|

Chorus
D|--------------------------------------|
A|--------------------------------------|
F|-------5\4-------------5*-------10\7b-|
C|-1-3-6-5\4-3-1-3-1-6\5----0-1-0-------|
G|-1-3-6-3\2-3-1-3-1-6\5----0-1-0-8-\5b-|
C|-1-3-6-----3-1-3-1-6\5----0-1-0-------|


3. Black Ice
Tuning: Drop C (DAFCGC)
Intro
D|-15-13----------12---------|
A|-------12-14-15------------|
F|-------------------12h14~~-|
C|---------------------------|
G|---------------------------|
C|---------------------------|x13

Verses
D|---------|
A|---------|
F|------33-|
C|------22-|
G|-12\\-11-|
C|-12\\-11-|

Chorus
D|----------------------------------------------|
A|----------------------------------------------|
F|-------------------------------------3333-----|
C|-------------------------------------2222-----|
G|-3-2-0-2-222-3-2-0-2-222-3-2-0-2-222-1111-000-|
C|-3-2-0-2-222-3-2-0-2-222-3-2-0-2-222-1111-000-|
PM         ***         ***         *** 

4. Freedom Fighters
Tuning: Drop C (DAFCGC)
Intro
D|-------2-/3h5p3p2h3p2---------3-------2-2h3p2---------|
A|---3------------------3---3-------3-----------3p2---2-|
F|-2---2------------------2---2---2---2-------------3-2-|
C|----------------------------------------------------0-|
G|------------------------------------------------------|
C|------------------------------------------------------|

Verses
D|-------------------------------------|
A|-------------------------------------|
F|-44-77-------------------------------|
C|-44-77-55-44-00-/8-8-8-7--10\9-555h7-|

If You Want This Love chords – West Coast Pop Art Experimental Band

 The West Coast Pop Art Experimental Band - If You Want This Love

CAPO IV

 E Em  2x

 Em Am B 
If you want this love of mine
 Em Am B 
treat me gentle and treat me kind
 Em Am 
Don't be mean and don't be bad
            B Em 
and you'll get the truest love that you've ever had

 Em Am B 
If you want my lips to kiss
 Em Am B 
cuddle close and don't resist
 Em Am 
Loving you is all I crave
            B Em 
and if you love me pretty baby I'll be your slave

 Am 
If you want this love of mine
 Em 
baby come on and get it
 Am 
If you should fall in love with me
      B 
I'll bet you will never regret it

 Em Am B 
Not a thing I wouldn't do
 Em Am B 
I'll do anything just for you
 Em Am 
Till I will know that you're really mine
          B Em 
and I'll love you pretty baby till the end of time

 E Em  2x

Solo
 E A F# B E Em  2x

 Em Am B 
If you want this love of mine
 Em Am B 
treat me gentle and treat me kind
 Em Am 
Don't be mean and don't be bad
            B Em 
and you'll get the truest love that you've ever had

 Em Am B 
If you want my lips to kiss
 Em Am B 
cuddle close and don't resist
 Em Am 
Loving you is all I crave
            B Em 
and if you love me pretty baby I'll be your slave

 Am 
If you want this love of mine
 Em 
baby come on and get it
 Am 
If you should fall in love with me
      B 
I'll bet you will never regret it

 Em Am B 
Not a thing I wouldn't do
 Em Am B 
I'll do anything just for you
 Em Am 
Till I will know that you're really mine
          B Em 
and I'll love you pretty baby till the end of time

 E Em  2x

Solo
 E A F# B E Em  2x
 E

Art Is Hard Tabs by Cursive V2

 I like what was submitted so far, I just have a few more flares to add, play along 
& use what you'd like!

intro
e|---------------------------|
b|---------------------------|
g|--------3-3p2--------------|
d|-5-5-55-------5-5-55-5-5h7-| (2x)
a|-5-5-55-------5-5-55-------|
E|-3-3-33-------3-3-33-------|

Verse
e|---------------------------------|
b|---------------------------------|
g|---------8-8-888-----------------|
d|-5-5-555-8-8-888-8-8-888-7-7-777-|
a|-5-5-555-6-6-666-8-8-888-5-5-555-|
E|-3-3-333---------6-6-666---------|

Bridge
e|---------------|      |---------------| 
b|---------------|      |---------------|
g|---------------|      |---------------|
d|-5p4-5p4-5p4h5-| (2x) |-5h7-5h7-5h7p5-| (2x)
a|-5-------------|      |---------------|
E|-3-------------|      |---------------|
   And that CD sells      yeah what a hit...

Chorus
e|---------------------------------|  
b|---------------------------------|  
g|-8-8-888-7-7-777---------7-7-777-|  
d|-8-8-888-7-7-777-8-8-888-7-7-777-| 
a|-6-6-666-5-5-555-8-8-888-5-5-555-|  
E|-----------------6-6-666---------|  
   If at first you don't succeed...

e|---------------------------------------------|
b|---------------------------------------------|
g|-8888888888-7777777777------------7777777777-|
d|-8888888888-7777777777-8888888888-7777777777-|
a|-6666666666-5555555555-8888888888-5555555555-|
E|-----------------------6666666666------------|
   Try and fail and try again...

Intro

Verse 

Bridge

Solo
e|---------------------------------------------------------| 
b|---------------------------------------------------------|
g|---------------3p2-3p2-3p2h3-5p3-5p3-5p3h5-7p5-7p5-7p5h7-|
d|-5h7-5h7-5h7p5-------------------------------------------| 
a|---------------------------------------------------------|
E|---------------------------------------------------------|

Chorus

End with:
e|-----|     
b|-----|    
g|-8-8-|      
d|-8-8-| 
a|-6-6-|     
E|-----|  
   Hey, hey

then the solo

Art Of Moving On Tabs by Heffron Drive

 ~[Thanks, y'all! Have fun with this one! Make sure to check out my other tabs, and 
check out my YouTube (Jaila Urban). Thanks!!]~

Capo: 1
Tuning: Standard


Intro:

~[Rough estimate.]~

~[Repeat throughout verses, pre-chorus' and the bridge:]~

e----3-------3------------------------------|
B-1h3-1-1-1h3-------------------------------|
G-------------------------------------------|
D-------------------------------------------|
A-------------------------------------------|
E-------------------------------------------|

~[Palm-mute the verses and the pre-chorus'.]~
~[Crescendo means to gradually get louder]~
~[Crescendo, then stop right before the next chord after the pre-chorus', bridge, 
and in the outro.]~
~[In the chorus, stop playing at "keeps"; at "all", you continue.]~

Verse 1:

C
I don't remember what we might have said
Em
  And I didn't bother to write down, anyhow
C
  All of the memories spun like your web
Em
  And I can't get out, get out, get out


Pre-Chorus 1:

Em
I gave everything I got not to lose you
Em
We chose to say goodbye, but I choose you
Em
I choose you


Chorus:

G                                              Am
I keep building walls, but you're always on my mind
Am
Won't let them fall down, I'm tired
       Em                        Am
Can we give up the art of moving on?
Am
On, on
                      C
'Cause it keeps me up all night, all night-ooh
            Em
Keeps me up all night, all night-ooh

Ooh-ooh


Verse 2:

C
Feels like I'm stuck here, frozen in time
Em
  If it wasn't real, then I wonder what really is
C
  If there's a world where you could be mine
Em
  That's where I'd live, I'd live, I'd live


Pre-Chorus 2:

Em
I gave everything I got not to lose you
Em
Not to lose you


Chorus:

G                                              Am
I keep building walls, but you're always on my mind
Am
Won't let them fall down, I'm tired
       Em                        Am
Can we give up the art of moving on?
Am
On, on
                      C
'Cause it keeps me up all night, all night-ooh
            Em
Keeps me up all night, all night-ooh

Ooh-ooh


Bridge:

Em
I gave everything I got not to lose you
Em
Not to lose you
Em
We chose to say goodbye, but I choose you
Em
I choose you


Chorus:

G                                              Am
I keep building walls, but you're always on my mind
Am
Won't let them fall down, I'm tired
       Em                        Am
Can we give up the art of moving on?
Am
On, on
                      C
'Cause it keeps me up all night, all night-ooh
            Em
Keeps me up all night, all night-ooh
               C
It keeps me up all night, all night-ooh
            Em
Keeps me up all night, all night-ooh

Ooh-ooh


Outro:

Em

Lost Art Of Murder chords – Babyshambles V5

 CAPO ON FIRST : Chords relative to capo.

Play the chords C3 and C# whit a sort of arpeggio 

 E      (022100)
 B7     (X21200)
 A5     (X022XX)
 A7     (002020)
 B7+    (224242)
Do#-  (446654)
Sol#- (466444)
Fa#-  (244222)
 C3     (X244XX)
 C#     (X355XX)
 A      (466544)
 A#3    (577655)
 A#m    (X77500)

Verse 1:

 E 
 Could roll a four
 B7 
 Could roll a nine
 A5 E 
 Find yourself washed up in paradise


 E 
 Just like before
 B7 
 She never used to mind
 A5 A7 B7+ E 
 I lost my phone in       paradise

Refrain:

    Do#-                    Sol#-
And what a nice day for a murder
    Fa#-                             C3 
You call yourself a killer but the only thing that you're
 C#               Do#-
killing is your time

                Sol#-
There's nothing absurder
  Fa#-
A bird is just a burden
         C3 C# E 
To your heart your soul your body spirit and mind

                         A 
Oh dont look at me like that
                  A#3 
She won't take you back
              A#m E 
You said too much, you been too unkind
                 A 
Get up off your back
              A#3 
Stop smoking that
           A#m 
You could change your life
        A#m 
Do you think you'll change their mind

Repeat the intro.

 E 
 Could roll a four
 B7 
 Could roll a nine
 A5 E 
 Find yourself washed up in paradise

 E 
 No light before
 B7 
 No light behind
 A5 A7 B7+ E 
 Someone else washed up in      paradise

    Do#-                    Sol#-
And what a nice day for a murder
    Fa#-                              C3 
You call yourself a killer but the only thing that you're
 C#               Do#-
killing is your time

                Sol#-
There's nothing absurder
  Fa#-
A bird is just a burden
         C3 C# E 
To your heart your soul your body spirit and mind

                         A 
Oh dont look at me like that
                   A#3 
She won't take you back
              A#m E 
You said too much, you been too unkind
                 A 
Get up off your back
             A#3 
Stop smoking that
           A#m 
You could change your life
            A#m 
Do you think you'll change their mind