Tag: as

As If Its Your Last 마지막처럼 chords by BLACKPINK

[Intro]

E|------------------------------------------|
B|------------------------------------------|
E|------------------------------------------|
D|------------------------------------------|(4x)
A|--7-3---7-3---7-3---7-8-10----------------|
E|------3-----3-----3-----------------------|

[Verse 1]
E             Em              E
neo mwonde jakku saenggakna
             Em
jajonsim sanghae aega ta
E                Em                    E
eolguli tteugeobgo gaseumeun gyesok ttwieo
                  Em                E
nae momi mamdaero an dwae eojireowo

[Verse 2]
E              Em         E
neon han jumui morae gata
               Em
jabhil deut jabhiji anha
E                     Em                    E
neon swibji anheun geol geuraeseo deo kkeullyeo
                  Em
nae mami mamdaero an dwae eoieobseo

[Pre-Chorus]
Em               G
jigeum neoreul wonhaneun
           D            C
nae sumgyeoli neukkyeojini
        Em
neol barabogo isseodo
G
Missing you
       D                      C
seotun nal Won’t you set me free

[Chorus 1]
            C                G
Baby nal teojil geotcheoreom anajwo
         D                Em
geuman saenggakhae mwoga geuri eoryeowo
C                   G                D
geojitmalcheoreom kiseuhaejwo naega neoege
      Em
majimak sarangin geotcheoreom

[Chorus 2]
C                     G
majimakcheoreom ma-ma-majimakcheoreom
  D                    Em
majimak bamin geotcheoreom Love
C                     G
majimakcheoreom ma-ma-majimakcheoreom
       D                       Em
naeil ttawin eobtneun geotcheoreom Love

[Rap]
E
Uh Imma fall in love baby
E
You gon finna catch me
E
Uh give you all of this baby
E
Call me pretty and nasty
E
Cause we gonna get it
E
my love you can bet it on
E
black we gon double
E
the stack on them whoa!
E
I be the Bonnie and
E
you be my Clyde
E
We ride or die
E
Xs and Os

[Pre-Chorus]
Em             G
siganeun heulleoganeunde
     D            C
maeumman geubhaejiji
      Em
nae sesangeun neo hanaman
G
Missing you
       D                      C
seotun nal Won’t you set me free

[Chorus 1]
            C                G
Baby nal teojil geotcheoreom anajwo
         D                Em
geuman saenggakhae mwoga geuri eoryeowo
C                   G                D
geojitmalcheoreom kiseuhaejwo naega neoege
      Em
majimak sarangin geotcheoreom

[Chorus 2]
C                     G
majimakcheoreom ma-ma-majimakcheoreom
  D                    Em
majimak bamin geotcheoreom Love
C                     G
majimakcheoreom ma-ma-majimakcheoreom
       D
naeil ttawin eobtneun geotcheoreom Love

[Bridge]
Em
One two three
     G
saeroun sijakiya
        D             C
jeoldae dwidolabojin anheul geonikka
      Em
nal neoege deonjimyeon
       G
neoneun nal kkok jabajwo
      D                   C
sesangeun uril kkeokkji mothal tenikka

N.C.
BLACKPINK in your area

[Chorus 1]
            C                G
Baby nal teojil geotcheoreom anajwo
         D                Em
geuman saenggakhae mwoga geuri eoryeowo
C                   G                D
geojitmalcheoreom kiseuhaejwo naega neoege
      Em
majimak sarangin geotcheoreom

[Chorus 2]
C                     G
majimakcheoreom ma-ma-majimakcheoreom
  D                    Em
majimak bamin geotcheoreom Love
C                     G
majimakcheoreom ma-ma-majimakcheoreom
       D                       Em
naeil ttawin eobtneun geotcheoreom Love

As We Go Along chords – The Monkees Vsion 3

 Written By Carole King & Toni Stern
Performed By The Monkees for "Head"

Performance Notes: Singing and playing this can be a little tricky if you're not comfortable with phrasing in
5/4, such as the intro and verses for this song. It shifts to a swinging 3/4 for the choruses, but most of
the song is in 5. Deceptively brilliant harmonization in the chords, giving it a very laid back, jazzy vibe. 

Dadd4add9 is played by holding the C chord fingering and sliding your hand up to the fifth fret, making 
sure to let the open G and high E strings ring out.

All chord names and positions are relative to capo (so A is fretted but Bb is what you hear).

Capo 1st fret



 A D A D 
I can tell by your face,
   A D 
That you're looking to find a place,
    A A7 D E 
To settle your mind and reveal who you are.

          A D 
And you shouldn't be shy,
 A D 
For I'm not gonna try,
    A A7 D A 
To hurt you, or heal you, or steal your star.

 A7 Amaj7 D A 
Open your eyes, get up off your chair,
 C                   Dadd4add9   A 
There's so much to do in the sunlight.
 A7 D 
Give up your secrets,
 A7 D 
And let down your hair,
 A D Bm7        
And sit with me here by the firelight.

 A D A D 
Why think about,
 A D 
Who's gonna win out?
       A A7 D E 
We'll make up our story as we go along.

 A D 
There's so little time,
 A D 
For us to try to rhyme,
 A A7 D Bm7 A 
And so many highways to travel upon.

 A7 Amaj7 D A 
Open your eyes, get up off your chair,
 C                   Dadd4add9   A 
There's so much to do in the sunlight.
 A7 D 
Give up your secrets,
 A7 D 
And let down your hair,
 A D Bm7 
And sit with me here by the firelight.

 A D     


There are numerous guitars layered on here, I'm pretty certain there's one capoed much higher up
that plays the arpeggiated triads during each chorus. If you wish to add them in with this guitar the tab
would be:

-------12---------12---------12----------12----------12----------12  
---10---------10---------10----------10----------10----------10----
9----------9----------9----------11----------11----------11--------
-------------------------------------------------------------------
-------------------------------------------------------------------
-------------------------------------------------------------------

We Drag The Dead On Leashes Tabs – Being As An Ocean

 Track: We Drag The Dead On Leashes
Artist: Being As An Ocean
 How We Both Wondrously Perish (2014)
Tuning: Drop D (D A D G B e)

---

: Noah Maranesi
Website: Instagram.com/n04hz_ark

Simple, non-repeated version available at the bottom (after Outro)

---

Intro (0:05)
                                                x2
e|-----------------------------------------------|
B|-----------------------------------------------|
G|-----------------------------------------------|
D|--------4--------4--------4--------4--------0--|
A|-----5--------5--------5--------5--------7-----|
D|--5--------5--------5--------5--------7--------|


Verse (0:12)

    "We've all done things that we're ashamed of..."
                                                x3
e|-----------------------------------------------|
B|-----------------------------------------------|
G|-----------------------------------------------|
D|--------4--------4--------4--------4--------0--|
A|-----5--------5--------5--------5--------7-----|
D|--5--------5--------5--------5--------7--------|

e|-----------------------------------------------|
B|-----------------------------------------------|
G|-----------------------------------------------|
D|--------4--------4--------4--------4--------7--|
A|-----5--------5--------5--------5--------9-----|
D|--5--------5--------5--------5--------9--------|

  (Repeat Verse once again)


Post Verse (0:39)

e|------------------------------------------|
B|------------------------------------------|
G|------------------------------------------|
D|------------------------------------------|
A|------------------------------------------|
D|--(5)----(7)--(9)------(12)---(9)----(7)--|


Chorus (0:49) (Strum each chord noted twice)

    "And it seems we've been thrown into an endless cycle..."

e|-----------------------------------|
B|-----------------------------------|
G|-----------------------------------|
D|-----------------------------------|
A|--5-5-5-5-5-5-7-7-9-9-9-9-9-9-9-9--|
D|--5-5-5-5-5-5-7-7-9-9-9-9-9-9-9-9--|

e|----------------------------------|------------------|
B|----------------------------------|------------------|
G|----------------------------------|------------------|
D|----------------------------------|------------------|
A|--5-5-5-5-5-5-7-7-9-9-9-9-9-9-9-9-|-7-7-7-7-7-7-7-7--|
D|--5-5-5-5-5-5-7-7-9-9-9-9-9-9-9-9-|-7-7-7-7-7-7-7-7--|

    "Forget the things you hate in yourself..."

e|-----------------------------------|
B|-----------------------------------|
G|-----------------------------------|
D|-----------------------------------|
A|--5-5-5-5-5-5-7-7-9-9-9-9-9-9-9-9--|
D|--5-5-5-5-5-5-7-7-9-9-9-9-9-9-9-9--|

e|----------------------------------|------------------|
B|----------------------------------|------------------|
G|----------------------------------|------------------|
D|----------------------------------|------------------|
A|--5-5-5-5-5-5-7-7-9-9-9-9-9-9-9-9-|-7-7-7-7-7-7-7-7--|
D|--5-5-5-5-5-5-7-7-9-9-9-9-9-9-9-9-|-7-7-7-7-7-7-7-7--|


Re-Intro (1:22)
                                                x2
e|-----------------------------------------------|
B|-----------------------------------------------|
G|-----------------------------------------------|
D|--------4--------4--------4--------4--------0--|
A|-----5--------5--------5--------5--------7-----|
D|--5--------5--------5--------5--------7--------|

Verse (1:35) (Played twice)

    "We turn to others for some kind of safety..."
                                                x3
e|-----------------------------------------------|
B|-----------------------------------------------|
G|-----------------------------------------------|
D|--------4--------4--------4--------4--------0--|
A|-----5--------5--------5--------5--------7-----|
D|--5--------5--------5--------5--------7--------|

e|-----------------------------------------------|
B|-----------------------------------------------|
G|-----------------------------------------------|
D|-------

Dark As A Dungeon chords – Kathy Mattea

 Kathy Mattea - Dark As A Dungeon


CAPO: 3rd Fret




          C F G 
Come and listen you fellows, so young and so fine
     C F C 
And seek not your fortunes in the dark dreary mines
                             F G 
It will form as a habit and seep in your soul
          C F C 
'Til the stream of your blood runs as black as the coal


CHORUS:
            G C 
Where it's dark as a dungeon and damp as the dew
       G F C 
Where danger is double and pleasures are few
                                    F G 
Where the rain never falls and the sun never shines
      C F C 
It's dark as a dungeon way down in the mines


                          F G 
It's a many a man I have known in my day
     C F C 
Who lived just to labour his whole life away
                                  F G 
Like a fiend with his dope, or a drunkard his wine
   C F C 
A man will have lust for the lure of the mines


CHORUS:
            G C 
Where it's dark as a dungeon and damp as the dew
       G F C 
Where danger is double and pleasures are few
                                    F G 
Where the rain never falls and the sun never shines
      C F C 
It's dark as a dungeon way down in the mines


INTERLUDE:  C F C F G 
Well, the midnight or the morning or the middle of day
        C F C 
Is the same to the miner digging away
                                 F G 
Where the demons of death often come by surprise
     C F C 
One fall of the slate and you're buried alive


CHORUS:
            G C 
Where it's dark as a dungeon and damp as the dew
       G F C 
Where danger is double and pleasures are few
                                    F G 
Where the rain never falls and the sun never shines
      C F C 
It's dark as a dungeon way down in the mines


                                    F G 
Well, I hope when I'm gone and the ages shall roll
    C F C 
My body will blacken and turn into coal
                                    F G 
Then I'll look from the door of my heavenly home
     Am Em F C 
And pity the miner digging my bones


CHORUS:
            G C 
Where it's dark as a dungeon and damp as the dew
       G F C 
Where danger is double and pleasures are few
                                    F G 
Where the rain never falls and the sun never shines
      C F C 
It's dark as a dungeon way down in the mines
          Am G F C F F6 C 
Oh, it's dark as a dungeon way down in the mines

Come Just As You Are chords – Joe Sabolick

 CAPO 3

 D A G A 
Come just as you are.
 Bm A D G A 
Hear the Spir-it call______.
 D A G 
Come just as you are.
 Em D 
Come and see, come receive,
 G Asus A 
Come and live for - ev - er.


 G D Bm A G D Bm A 
Life everlasting____,  and strength for today____.
 G Bm Em Asus A 
Taste the Living Water, and never thirst a-gain___.


 D A G A 
Come just as you are.
 Bm A D G Bm A 
Hear the Spir-it  call______.
 D A G 
Come just as you are.
 Em D 
Come receive, Christ the King,
 G Asus A D 
Come and live for-ev - er more.



V1 -> CH -> V2 -> CH -> V2

Love Me As Though There Were No Tomorrow chords – Glen Campbell

 Love Me As Though There Were No Tomorrow
Glen Campbell

Intro   C 

Chorus 1 

 C Cmaj7 
Love me 
     Am C Dm     
as though there were no tomorrow 
 F G 
take me 
             G7 C Em Am Am7 
out of this world tonight

Verse 1

 Am 
Take me 
          Am7 Em 
make me forget my sorrow
                F 
So when I wake tomorrow 
               C Bb G G7 
I'll know our love was right

Verse 2

 C Cmaj7 
Kiss me 
 Am C Dm 
as though it were now or never 
 F G 
teach me 
              G7 A7 Bm7 Cm7 A A7 
all that our heart should know

Verse 3

      Dm 
Just love me 
    G G7 Bb A 
as though there were no tomorrow
        A7 C Am Dm 
Oh my darling love me 
 G C Dm G 
don't ever let me go

 C Cmaj7 Am C Dm F G G7 A Bm7 G#7 A  

Chorus 2 

        Dm 
Please love me 
    G G7 Bb A 
as though there were no tomorrow
 Am C Am Dm 
Oh my darling love me
        G G# Bb C           
don't ever let me go

flyinglibra51
God Bless Glen Travis Campbell

Sure As The Sun chords – Glen Campbell

 Sure As The Sun
Glen Campbell
Album Jesus And Me the Collection

 
Intro   Eb Ab Bb Eb Fm Eb Fm 


Verse 1

 Eb Fm 
I'm not always available to shine my light
   Ab Eb 
I ain't always happy, things ain't always right
                                  Fm 
But the LORD never said this ole world was my home
         Ab Eb 
HE said I'm just a pilgrim to keep movin' on.


Verse 2

      Gm Fm 
So I set my sights on the eternal heights
         Ab Eb Ab 
With my eyes on the Kingdom above
        Gm Fm 
Then I hide my life in the light of His WORD
     Ab Fm Bb 
And rest in my sweet Saviour's love.


Chorus 1

 Eb Ab 
As sure as the sun comes up in the sky
 Fm Eb Ab Eb 
I've got a home up in Heaven on high
                      Ab 
As sure as the stars are out there tonight
       Fm Eb Ab 
GOD's up on HIS throne and everything is alright.
       Eb Ab 
La-de-da, la-de-da, La-de-da, la-de-dee
 Fm Eb Ab Eb 
My Heavenly Father takes good care of me (good care of me)
                 Fm Eb Fm Eb 
La-de-da, la-de-da, la-de-dee-ee.


Verse 3

       Fm Eb Fm 
We're all in the same situation, trapped here in doubt
 Ab Eb Fm 
We're ruining our lives, trying to figure it out
     Eb Fm 
But GOD made a way through the life of HIS SON
     Ab Eb 
To live here and hope for the new life to come.


Verse 4

      Gm Fm 
So I lay down my prayers at the foot of HIS stairs
      Ab Eb 
And dream the drea-eams of a child
         Gm Fm 
I climb up in the arms of my Father
           Ab Eb Cm 
And drift away from the world for a while.


Chorus 2

    Eb Ab 
As sure as the sun comes up in the sky
 Fm Eb Ab Eb 
I've got a home up in Heaven on high
                          Ab 
As sure as the stars are out there tonight
       Fm Eb 
GOD's up on HIS throne and everything is alright.
                           Ab 
La-de-da, la-de-da, La-de-de, la-de-doo
 Fm Eb Ab Eb 
JESUS is my Saviour, I hope HE's yours too
                 Fm Ab Eb Fm Ab Eb 
La-de-da, la-de-da, la-de-dee-ee.


Bridge

      Gm 
I've given my heart to HIM
 Fm 
I'm doin' my part for HIM
 Ab Eb 
HE picks me up when I fall
      Gm Fm 
I'll never go back, as a matter of fact
             Ab Eb Ab 
There ain't nothin' behind me at all.


Chorus 3

    E A 
As sure as the sun comes up in the sky
 F#m E A E 
I've got a home up in Heaven on high
                          A 
As sure as the stars are out there tonight
       F#m E A E 
GOD's up on HIS throne and everything is alright...


Outro
                           A 
La-de-da, la-de-da, La-de-da, la-de-dee
       F#m E A E 
GOD's already forgotten what 

Just As I Am chords – Brantley Gilbert

 Hey all!  so please adjust it as necessary! This is another fantastic song by BG!

CAPO: 1 or 2 (Based on preference)

VERSE 1
                           G 
You said come just as you are 
                            Em7 
Your skin and bones smell like a bar 
                           Cadd9 
You say you want me there this way
 Dsus G 
Okay, well I'm on my way, 
                               G 
I'll grab this bottle just in case 
                         Em7 
I'm just too ashamed to pray
                                   Cadd9 
Well I'm bringing this problem to you now
               Dsus 
Yea the prodigal son returns
         Em7 Dsus 
The only way that I know how, the only way that I know how



CHORUS
                          G 
Gonna drive my steel horse down to the alter 
         Em7 
Put my hands on the tank and pray
         Cadd9 
Lord I ain't got much to offer
         Dsus 
And I ain't tryin to die this way
         G 
So may this bottle be the body
          Em7 
And this bourbon be the blood 
         Cadd9 
If I pour it out will you take my offering
          Dsus 
Give me the strength to never pick it up 
           Em7 Dsus  (once)
Yea here I stand,        just as I am 


 G Em7 Cadd9 Dsus 


VERSE 2
                               G 
You know most folks don't understand 
                                     Em7 
That I'm talkin bout pourin out my best friend
              Cadd9 
Damn, it sounds so sad, but that's how it is
              Dsus 
And that's why it's gotta end 
             Em7 
Lord I've tried it by myself  
             Dsus                  
Forget my pride, I need your help 


CHORUS
                       G 
Gonna drive my steel horse down to the alter 
           Em7 
Put my hands on the tank and pray
          Cadd9 
Lord I ain't got much to offer
         Dsus 
And I ain't tryin to die this way
           G 
So may this bottle be the body
           Em7 
And this bourbon be the blood 
           Cadd9 
If I pour it out will you take my offering
           Dsus 
Give me the strength to never pick it up 
          Em7 Dsus  (once)
Yea here I stand,        just as I am 


VERSE 3
 G Em7 Cadd9 Dsus 
Mmmmmhmmmmmmm
 G 
So full that river full of tears and whiskey
 Em7 
Blood I've spilled and voice I've raised 
 Cadd9 
A thousand loved lost heart broke memories 
 Dsus 
Scars on the heart and the skin I'm wearin 
 Em7 Dsus 
Raise me up, a brand new man
 Em7 Dsus Cadd9  (once)
So I can face this world, just as I am

 
ENDING CHORUS
                      G 
You said come just as you are 
                      Em7 
Skin and bones and broken heart 
                      Cadd9 
You kept your word, and here I stand.
            Dsus  (once)
Born again,           just as I am 

Lost As chords – Brother And Bones

 (capo 3)
Verse 1
 G Bm D A 
Show me hope is watertight,
    G Bm D A 
An anchor for these lonely nights
            G D Bm A G Em 
Cos this sinking ship has land in sight
       G D Bm A G D  
Until all is lost as one, ‘til all is lost as one

Verse 2
Even love gets cold at night
So turn the other cheek with your lips sealed tight
And winter hold your breath tonight
Until all is lost as one, ‘til all is lost as one

Interlude
 Bm G D  x2

Verse 3
If only time was paper thin
Not these four walls that keep us in
This sleepless dream we’re drowning in
Until all is lost as one, ‘til all is lost as one

Pre-chorus
           A Bm G 
Wont you send me, wont you send me your burden
      A Bm G A G D 
And I’ll be, I’ll be begging to show you how mercy began

Interlude

Chorus
 Bm G D 
See how far we’ve come,
    Bm G D 
If all is lost as one
 Bm G D 
See how far we’ve come,
    Bm G D 
If all is lost as one
    Bm G D Bm G D 
If all is lost as one, if all is lost as one

Still As The Night chords – Duane Eddy

 -------------------------------------------------------------------------------
                        STILL AS THE NIGHT - Duane Eddy
-------------------------------------------------------------------------------
: harrytheblurfan

This was originally by Sanford Clark, I believe, but featured Duane Eddy on the 
guitar and has been covered a few times in recent years. Most notably by the 
Crystal Stilts on their Radiant Door EP and Richard Hawley who also performed 
it with Duane Eddy. Anyway, I can't find any tabs for it (or even lyrics!) so
here they are. 

In the break you can either play the first notes or the chords, both sound 
good so it's up to you.

Tuning: STANDARD

VERSE:

                 Em 
Still as the night 
                 G 
Cold as the wind 
                   Em 
Don't guess I'll see
             G 
My baby again

CHORUS:

 C 
His devil's smile
                G 
Stole her from me
               C 
Until she's back
              D 
My heart will be

                Em 
Still as the night
               G 
Cold as the wind

BREAK: 

e|----------------------|
B|----------------------|
G|----------------------|
D|----------------------|
A|-----2----------------|
E|-3-3---3-0~-0-0-2-3~--|

VERSE:

                 Em 
Still as the night 
                 G 
Cold as the wind 
                 Em 
Now her warm lips
               G 
Are kissing him

CHORUS:

 C 
Can't eat, can't sleep
                 G 
Please make her see
              C 
Until she's back
              D 
My heart will be

                Em 
Still as the night
               G 
Cold as the wind

BREAK:

e|--------------------------------------------| 
B|--------------------------------------------|
G|--------------------------------------------|
D|--------------------------------------------|
A|-----2---------------------2----------------|
E|-3-3---3-0~-0-0-2-3~---3-3---3-0~-0-0-2-3~--|

VERSE:

                 Em 
Still as the night 
                 G 
Cold as the wind 
             Em 
A fool in love
             G 
Can never win

CHORUS:

 C 
No I can't forget
                 G 
No I can't be free
              C 
Until she's back
              D 
My heart will be

                Em 
Still as the night
               G 
Cold as the wind

OUTRO:

e|--------------------------------------------| 
B|--------------------------------------------|
G|--------------------------------------------|
D|--------------------------------------------|
A|-----2---------------------2----------------|
E|-3-3---3-0~-0-0-2-3~---3-3---3-0~-0-0-2-3~--|



CHORDS:

    Em G C D 
e|-0--3--0--2--|
B|-0--3--1--3--|
G|-0--0--0--2--|
D|-2--0--2--0--|
A|-2--2--3-----|
E|-0--3--3-----|


************************************

| /   slide up
| \   slide down
| h   hammer-on
| p   pull-off
| ~   vibrato
| +   harmonic
| x   Mute note
| b   Bend
| pb  Pre-bend
| br  Bend release
| pbr Pre-bend release
| brb Bend release bend

************************************

As I Roved Out chords – Kate Rusby

 Kate Rusby - As I Roved Out



INTRO:  G C D Am C D G  
As I roved out one fine May morning
             C G Am D 
To view the meadows and flowers gay
     C D Am 
Oh, who should I spot, but my own true lover
    C G D 
As she sat by yon willow tree


        Am C D G  
I took off my hat and I did salute her
         C G Am D 
I did salute her most courageously
        C D Am 
As she turned around, the tears fell from her
          C G D 
Saying, "False young man, you've deluded me


         Am C D G  
And the diamond ring I behold, I gave to you
   C G Am D 
A diamond ring to wear on your right hand
         C D Am 
But the vows you made, love, you went and broke them
         C G D G C G Am 
And you wed the lassie who has the land."


                          C D G  
"If I wed the lassie who has the land, my love,
                C G Am D 
It's that I'll rue 'til the day I die.
         C D Am 
When misfortune falls, sure the man may shun it,
    C G D Am 
It was my fault, that I'll not deny"


INSTRUMENTAL:  C G C Am D C D Am C D Am C D G  
"And at night when I go to my bed of slumber
     C G Am D 
The thoughts of my love are in my mind.
      C D Am 
As I turn around to embrace my darling,
       C G D             
Oh, instead of gold, sure 'tis brass I will find


       Am C D G  
And I wish The Queen would bring home all her armies
          C G Am D 
From the West Indies, America and Spain.
     C D Am 
And every man to his wedded woman
        C G D             
Oh, in hopes that I might be with thee again"

Just As Long As That Someone Is You chords – Mickey Newbury

 Just as Long as That Someone Is You

 F Am Bb Gm   
I want someone I can talk to when I'm blue 
 C F C 
Someone to love me and be true 
 F F7 Bb Bbm 
Someone to love it makes no difference who 
         F C F Bb   
Just as long as that someone is you 

I want someone I can call when I'm alone 
Someone by my side when things go wrong 
Someone to stand by me no matter what I do 
Just as long as that someone is you 

 F7 Bb Bbm F  
Just as long as that someone is you 
         Dm G Gm7 C  
Then no matter what fate may hand me I can see it through 

I want someone I can talk to when I'm blue 
Someone to love me and be true 
Someone to love it makes no difference who 
Just as long as that someone is you

As It Is Infinite Tabs – Kiko Loureiro

 KIKO LOUREIRO
As it is, Infinite

By: Federico Bautista
bautistafederico@outlook.com
December 2014

*CD version, not the one he plays on his Youtube channel*

It is played rather freely, so nevermind the bars and all that. I just wanted to tab this piece
since I couldn't find it anywhere.

—arp.: arpeggiate fast

|--------------0--------0----|--------------0--------0----|
|-----------1----1---3-------|-----------1----1---3-------|
|--------4-----------5-------|--------4-----------5-------|
|-----2--------------4-------|-----2--------------4-------|
|-0------------------0-------|-0------------------0-------|
|----------------------------|----------------------------|
  let ring          arp.       let ring          arp.

|-7--7--5----10-9-8----|-7--5--------3-----------0-----------|
|----6--------------9--|-5-----5--------7----6-----3---------|
|----5-----------------|-5--------5----------5--------5--4/5-|
|----0-----------------|-4-------------------3---------------|
|----------------------|-0-----------------------------------|
|----------------------|---------------------4---------------|
    arp.                arp.                arp. let ring

|--------------0--------0----|-7--7--5------10-9-8/12--|-7--5--------3---------0----------|
|-----------1----1---3-------|----6-----6/8------------|-5-----5--------7---6----3--------|
|--------4-----------5-------|----5--------------------|-5--------5---------5------5--4/5-|
|-----2--------------4-------|----0--------------------|-4------------------3-------------|
|-0------------------0-------|-------------------------|-0--------------------------------|
|----------------------------|-------------------------|--------------------4-------------|
  let ring          arp.         arp.                    arp.              arp. let ring

|--------------0--------0------|--------------0--------0-----|
|-----------1----1---3-----(3)-|-----------1----1---3--------|
|--------4-----------5---------|--------4-----------5--------|
|-----2--------------4---------|-----2--------------4--------|
|-0------------------0---------|-0------------------0--------|
|------------------------------|-----------------------------|
  let ring          arp.         let ring          arp.
                                                                      *
|--------------------------0---0-------------|------------------------------------|
|-0--1-1--(1)-1--(1)-1--1------3---3--3----3-|-3-3---3-3---3-3------6-6----5------|
|----2-----3------2-----3------2------2------|-2-----2-----5-----7----7----5------|
|----2-----4------3-----2-------------3------|-3-----3-----6-----6----9----9------|
|----0---------------------------------------|-2-----------7----------0----0------|
|----------4------3-----2------1------1------|-------1-----0-----6----------------|
    arp.               arp.   arp.   arp.     arp.        arp.       arp. arp.
                                                                      *
|--------------------------0---0-------------|------------------------------------|
|-0--1-1--(1)-1--(1)-1--1------3---3--3----3-|-3-3---3-3---3-3------6-6---8\--5---|
|----2-----3------2-----3------2------2------|-2-----2-----5-----7----7-------5---|
|----2-----4------3-----2-------------3------|-3-----3-----6-----6----9-------9---|
|----0---------------------------------------|-2-----------7----------0-------0---|
|----------4------3-----2------1------1------|-------1-----0-----6----------------|
    arp.               arp.   arp.   arp.                 arp.       arp.    arp.

|-7--7--5----10-9-8----|-7--5--------3-----------0-----------|
|----6--------------9--|-5-----5--------7----6-----3---------|
|----5-----------------|-5--------5----------5--------5--4/5-|
|----0-----------------|-4-------------------3---------------|
|----------------------|-0-----------------------------------|
|----------------------|---------------------4---------------|
    arp.                arp.                arp. let ring

As Long As I Have You chords – Elvis Presley V2

 As Long As I Have You



         C Am 
Let the stars fade and fall
       F G7 
And I won't care at all
    Dm7 G7 C 
As long as I have you

 C Am 
Every kiss brings a thrill
       F G7 
And I know that it  will
    Dm7 G7 C 
As long as I have you


CHORUS:

 C7 F Em 
Let's think of the future
 Am G#dim Am 
For - get the past
        Am7 D7 
You're not my first love
     G7 
But you're my last

          C Am 
Take the love that I bring
            F G7 
Cause I'll have everything
    Dm7 G7 C 
As long as I have you

CHORUS:

....

    Dm7 G7 C 
As long as I have you

What Did I Do God As My Witness solo Tabs – Foo Fighters

 What Did I Do? Solo:

(Chris Shifflet)


e|-10-10-10---10-10-------10-10---10-10--------------------------------------|
B|-10-10-10---10-10-------10-10---10-10--------------------------------------|
G|------------------12b14---------------12b14--------------------------------|
D|---------------------------------------------------------------------------|
A|---------------------------------------------------------------------------|
E|---------------------------------------------------------------------------|

e|-10-10-12-12-12-12---------------------------------------------------------|
B|-10-10-12-12-12-12----8-7-8-10----10-10-10---------------------------------|
G|----------------------7-6-7-9-----9--9--9----------------------------------|
D|---------------------------------------------------------------------------|
A|---------------------------------------------------------------------------|
E|---------------------------------------------------------------------------|

play twice above

e|---------------------------------------------------------------------------|
B|---------------------------------------------------------------------------|
G|--9b11--9b11---9--7--7-7-----7----7h9-7------------------------------------|
D|-------------------------7s9----9-------9----------------------------------|
A|---------------------------------------------------------------------------|
E|---------------------------------------------------------------------------|

e|---------------------------------------------------------------------------|
B|--8-7-8-10----10-10-10------8-7-8-10----10-10-10---------------------------|
G|--7-6-7-9-----9--9--9-------7-6-7-9-----9--9--9----------------------------|
D|---------------------------------------------------------------------------|
A|---------------------------------------------------------------------------|
E|---------------------------------------------------------------------------|

God As My Witness Solo:

(Gary Clark Jr.)

e|-------------10-----12-----14--14-15-14-15-17--17b19--14--14--14h15p-14-12-|
B|---------------------------------------------------------------------------|
G|------7h9s11----s14----s16-------------------------------------------------|
D|--7h9----------------------------------------------------------------------|
A|---------------------------------------------------------------------------|
E|---------------------------------------------------------------------------|


e|--10-----------10-------------10-----------10------------------------------|
B|-----10-13b15-----10-15b15.5-----10-13b16-----10-13b16.5-------------------|
G|---------------------------------------------------------------------------|
D|---------------------------------------------------------------------------|
A|---------------------------------------------------------------------------|
E|---------------------------------------------------------------------------|


e|--10-----------------10--------------------15b17--14b15--15b17--15h17p15---|
B|-----10-13b15--(x5)-----13b15--15-15-18b19---------------------------------|
G|---------------------------------------------------------------------------|
D|---------------------------------------------------------------------------|
A|---------------------------------------------------------------------------|
E|---------------------------------------------------------------------------|


e|--------------15b17--------------------------------------------------------|
B|--15-15-18b19-------17b19--15---------15-17b19r17-15----15--7h8-7h8--10----|
G|-------------------------------14h16-----------------16-----7---7----------|
D|---------------------------------------------------------------------------|
A|---------------------------------------------------------------------------|
E|---------------------------------------------------------------------------|

Fresh As A Daisy chords – Emitt Rhodes

 C 
Well if you come from Heaven 
      Am F 
You know that that's okay
           C 
Just as long as you're here to help me 
              Am F 
It doesn't matter how long you stay
                C 
Talking 'bout you baby, 
                         F Dm C 
Don't you know you're fresh as a daisy, as fresh as a daisy
   C 
Well tell me can you feel it?
         Am F 
I'm feeling all right myself
  C 
I'm changing my old habits
           Am F 
And I've found a new bill of health
                 C 
All because of you baby

                         F C Dm G Am G F          
Don't you know you're fresh as a dai-sy, as fresh as a daisy, as fresh as a dai-sy
               Dm Am 
You do the things you do very well
              G C  
You make me feel the way I've never felt
               F G7 
You make me feel the way I've never felt

Don't know how I'll feel tomorrow
Tomorrow's another day
I like everything about you
What more is there to say
Talking 'bout you baby, 
Don't you know you're fresh as a daisy, as fresh as a daisy
Talking 'bout you baby, 
Don't you know you're fresh as a daisy, as fresh as a daisy

Posting the very best in power pop: Jimmy Curtis

Fast As You chords – Dwight Yoakam

 I am playing the organ on this song and this is what Im doing. Please rate.

 E E E E E E E7 E6 E7 E7 E6 
[intro]

 E E E E 
Maybe someday I'll be strong, maybe it won't be long
 A A E E 
I'll be the one who's tough, you'll be the one who's got it rough
 F# A E E 
It won't be long and maybe I'll be real strong

 E E  
Maybe I'll do things right, maybe I'll start tonight
 A E 
You'll learn to cry like me, baby let's just wait and see
 F# A E     (  E7 E6   riff)
Maybe I'll start tonight and do things right

 A A E E 
You'll control me and oh so boldly rule me 'till I'm free
           A A A B 
'Till the pain that shakes me finally makes me get up off of my knees
 B A G#m F#m ??   
Yeah, yeah, yeah, yeah

 E E   
Maybe I'll be fast as you, maybe I'll break hearts too
 A E   
But I think that you'll slow down when your turn to hurt comes around
 F# A E  (  E7 E6   riff)
Maybe I'll break hearts and be as fast as you...     awwwww...

 E E E E A A E E F# A E E 
[guitar solo]

 A E 
You'll control me and oh so boldly rule me 'till I'm free
 A B 
'Til the pain that shakes me finally makes me get up off of my knees
 B A G#m F#m 
Yeah, yeah, yeah, yeah

 E          
Maybe I'll be fast as you, maybe I'll break hearts too
 A E 
But I think you'll slow down when your turn to hurt comes around
 F# A E  (  E7 E6   riff)
Maybe I'll break hearts and be as fast as you
 F# A E  (  E7 E6   riff)
Maybe I'll break hearts and be as fast as you ...ahhh, s'okay (?)

 E E E E 
[similar to intro]

 E E E E A A E E F# A E E 
[guitar solo]

 E E E E A A E E F# A E E 
[spoken: Maybe someday I'll be strong, maybe it won't be long]
 A A E E 
[spoken: I'll be the one who's tough, you'll be the one who's got it rough]
 F# A E E 
[instrumental]

 E E E E 
[instrumental]
 A A E E 
[spoken: You'll learn to cry like me, baby let's just wait and see]
 F# A E E 
[instrumental]

 E E E E 
[spoken:] Y'know, maybe I'll be fast as you, maybe I'll break hearts too
 A A E E 
[laughter]
 F# A E E E .
[laughter]    

Hard As Hello Tabs by Kimberly Anne

 Such a brilliant song and really quite simple to play!  done by ear and 
watching Kimberly play an acoustic version of the song so may not be 100% accurate! Have fun 
playing! (:

Capo - 3rd Fret
Tuning - Standard
(All relative to capo)

Intro

e|--------------|
B|--------------|
G|--------------|      x2
D|--5--5--5--5--|
A|--------------|
E|-3--3--3--3---|



Verse

e|--------------|--------------|--------------|--------------|
B|--------------|--------------|--------------|--------------|
G|--------------|--------------|--------------|--------------|
D|--5--5--5--5--|--5--5--5--5--|--5--5--5--5--|--5--5--5--5--|
A|--------------|--------------|--------------|--------------|
E|-3--3--3--3---|-3--3--3--3---|-0--0--0--0---|-0--0--0--0---|
                                                                        x2
e|--------------|--------------|--------------|--------------|
B|--------------|--------------|--------------|--------------|
G|--------------|--------------|--------------|--------------|
D|--5--5--5--5--|--5--5--5--5--|--5--5--5--5--|--5--5--5--5--|
A|--------------|--------------|--------------|--------------|
E|-2--2--2--2---|-2--2--2--2---|-3--3--3--3---|-3--3--3--3---|



Pre-Chorus

e|--------------|--------------|    |--------------|--------------|
B|--------------|--------------|    |--------------|--------------|
G|--------------|--------------|    |--------------|--------------|
D|-5--5--5--5---|-5--5--5--5---| x2 |-5--5--5--5---|-5--5--5--5---| x2
A|--------------|--------------|    |--------------|--------------|
E|-3--3--3--3---|-3--3--3--3---|    |-0--0--0--0---|-0--0--0--0---|
                                                                           x2
e|--------------|--------------|    |--------------|--------------|
B|--------------|--------------|    |--------------|--------------|
G|--------------|--------------|    |--------------|--------------|
D|-9--9--9--9---|-9--9--9--9---| x2 |-9--9--9--9---|-9--9--9--9---| x2
A|--------------|--------------|    |--------------|--------------|
E|-8--8--8--8---|-8--8--8--8---|    |-0--0--0--0---|-0--0--0--0---|




Chorus (listen to song for strum pattern)


  Feet don't fail me now, I'm feeling stronger than this
e|----------|
B|----------|
G|----------|
D|----5-----|
A|----5-----|
E|----3-----|

  I'm as hard as...
e|----------|
B|----------|
G|----------|                                 x2
D|----9-----|
A|----9-----|
E|----8-----|

  Hell...
e|----------|
B|----------|
G|----------|
D|----9-----|
A|----9-----|
E|----0-----|



Verse         x2



Pre-Chorus    x2



Chorus        x2




  Cos I'm over and done with it...
e|----------|
B|----------|
G|----------|
D|----5-----|
A|----5-----|
E|----3-----|

  The sadistic fun of it...
e|----------|
B|----------|
G|----------|
D|----5-----|
A|----5-----|
E|----0-----|



 Chorus    x1



Bridge

e|----------|----------|
B|----------|----------|
G|----------|----------|
D|----7-----|----9-----|
A|----7-----|----9-----|
E|----5-----|----0-----|



Chorus    x2




Lyrics (all worked out by ear so sorry if they're wrong!)


She's got a smile,
You forget in an instant,
Hold on a while,
Her words got no substance,
That I can tell,
What the hell

She'll tell you tales,
About when you went travelling,
To forget herself,
And you'll hang on every word,
No matter how self centred


When I'm watching the track journey (oh oh),
As you choose her over me (oh oh),
And it's that cinematic walk away scene,
Where I'll be fine (oh oh)

Cos I'm over and done with it (oh oh),
The sadistic fun of it (oh oh),
Just turn around and run for it (oh oh),
And soon I'll be fine


Oh feet don't fail me now,
I'm feeling stronger than this,      x2
I'm as hard as hell


She thinks she's got a clue,
A political mind but,
She'll hide from the news,
And b

As It Must Be chords – The Milk Carton Kids

 , so bear with me, but this is more for singing along with the 
song, I'm not able to do all the picking but I worked out some basic chords that 
make the song easy to play :) If you know the song you'll be able to easily tell 
where the chords change. Hope this is useful, do give me suggestions if I can improve it. 

Its basically 
 Am G Am G D Am C G D 

(I like to play it with a capo on 4 but it depends what suits your voice.)

Maybe we'll come out of this 
Maybe we'll come out of this unscathed 
Just like the story said 
Ever after we shall be okay 

I know that you don't know where we go when we go 
I know that it's hard so we can't go alone 

Let it run right over you 
Let it run like water to the sea 
Nothing lasts forever darling 
Everything is as it must be 

I know that you'd never let me go on my own 
I know that I'll never make it alone 

Look at your reflection 
Casting your own image in the stream 
Though it moves right through you 
Something of you soul remains within