Tag: asleep

Till I Fall Asleep chords – Jayme Dee Vsion 3

 Capo 1


 C F Am  
If you would just slow down you would see
                   F 
We were meant for something
 C F Am 
Lay your armor down and stay with me
                    F 
Aren't you tired of running?



 G F G 
Can we go back before the storm came raging?
                           F 
And everything we built was gone

-----------[Chorus]------------------------------------
   C F 
So sing to me til I fall asleep
 Am G F 
Like the way you did when you were still mine
    C F 
And tell me that it's not over yet
 Am G F 
We were never good at saying goodbyes
     Am G F 
Why can't you see what's right in front of your eyes?
-------------------------------------------------------

 C F Am  
Remember our first kiss that starry night?
                      F 
It felt like we were flying
 C F Am 
So how do we forget that love is on our side
                 F 
Oh we never saw this coming



 G F G 
Can we go back before the morning took you?
                         F 
And every dream of you was gone


-----------[Chorus]------------


 Am F Am G F 
Woah, woahhh, woahhhhh


 G F G 
Can we go back before the storm came raging?
                           F 
And everything we built was gone


   C F 
So sing to me til I fall asleep
 Am G F 
Like the way you did when you were still mine

-----------[Chorus]-------------

On Tracks Asleep Beneath The Snow chords – The Riot Before

 SONG:   ON TRACKS ASLEEP BENEATH THE SNOW
ARTIST: THE RIOT BEFORE
TAB BY: DON CZARSKI
EMAIL:  GUITARZAN7@HOTMAIL.COM


         ON TRACKS ASLEEP BENEATH THE SNOW
                 THE RIOT BEFORE


INTRO:
 Db Ebm F# Db Ebm F# 


VERSE:
 Db Ebm 
  I'm feeling old
            F# 
I've been painted in a portrait 

That I locked inside the attic now
 Db Ebm F# 
  It's time to stab and let it bleed
 Db Ebm F# 
  Because the soul is growing more and more uneasy

With the words and lack of feeling that
 Db Ebm F# 
  Escape my mouth but don't deceive
 Db Ebm F# F# 
  Escape my mouth but won't deceive


CHORUS:
 Bbm F#   
   'Cause the fog will seldom break
        Bbm Ab F# 
Long enough to safely navigate
 Db Ab F# 
  I wish I could hold you in the air
          Db Ab F# 
Put you down and with sincerity declare

           Db 
That I believe
           Ebm 
That I believe
           F# 
That I believe

           Db 
That I believe
           Ebm 
That I believe
           F# 
That I believe


VERSE:
 Db Ebm 
   I'm leaving now
           F# 
From the simple road I've taken 

Paved with every phrase and statement used
 Db Ebm F# 
  To edify and then repeat
 Db Ebm 
  I won't allow
             F# 
My feet to follow false progression 

Of the shallow senseless question that
 Db Ebm F# 
  Is answered fast but so empty
 Db Ebm F# F# 
  I'm answered fast but left empty


CHORUS:
 Bbm F# 
   'Cause the fog will seldom break
        Bbm Ab F# 
Long enough to safely navigate
         Db 
So I'm breaking from this blind race

I'm digging in my heals
            Ab 
Refuse to transfer into canvas

And honestly I'll feel
        Bbm 
Every doubt and every dispute
                    F# 
And fear that dogs my mind
          Db 
And with every challenge I take

With every victory
             Ab 
I'll climb higher towards the cloud line

Ever gaining clarity
         Bbm 
When my feet are firmly planted
                      F# Ebm 
I'll look out and I will find
            Db Ab F# 
That I'm breathing out and breathing in the air
          Db Ab F# 
And the moon the stars the sun they still declare

           Db 
That I believe
           Ebm 
That I believe
            F# 
That I believe

           Db 
That I believe
           Ebm 
That I believe
            F# 
That I believe


====================== CAPO: 1st FRET ======================


SONG:   ON TRACKS ASLEEP BENEATH THE SNOW
ARTIST: THE RIOT BEFORE
TAB BY: DON CZARSKI
EMAIL:  GUITARZAN7@HOTMAIL.COM


         ON TRACKS ASLEEP BENEATH THE SNOW
                 THE RIOT BEFORE


CAPO: 1st FRET


INTRO:
 C Dm F C Dm F 


VERSE:
 C Dm 
  I'm feeling old
            F 
I've been painted in a portrait 

That I locked inside the attic now
 C Dm F 
  It's time to stab and let it bleed
 C

Fall Asleep chords – Us V2

 Fall Asleep 
Us (Us the Duo) 
Us (2012) 

Here is an acoustic version of this song from their YouTube channel:



Tuning: EADGCe (you just tune up the b string a half step to c) 

*********************************
        C  - x32000 
        F  - x87000 
       Am  - 5x5500 
      C/B  - x2000x 
        G  - x109000
   F (bar) - 13320x
   C (bar) - 8101090x
 C/B (bar) - 7101090x
*********************************


Intro 
 F C  X2 


Verse 1 
 F C  
  I'm always worrying through-out the day 
       F C  
These troubles and these problem never go away 
            F Am  
And at the end of the day I just want to lay my head 
        F C C/B G  
On the pillow next to yours in-side our bed 


Chorus 
                F  
I just want to fall asleep 
                C 
I just want to fall asleep 
                F 
I just want to fall asleep 
             C C/B  
Inside your arms 
                F 
I just want to fall asleep 
                C 
I just want to fall asleep 
                F 
I just want to fall asleep 
             C C/B F  
Inside your arms 



Verse 2 
 F C 
  I'm always worrying when I'm awake 
 F C 
Life is kinda hard with all this give and take 
           F Am 
When it's too much to bare and I'm all-alone 
   F G 
I think about lying next to you when I get home 


Chorus (barred)
                F  
I just want to fall asleep 
                C 
I just want to fall asleep 
                F 
I just want to fall asleep 
             C C/B  
Inside your arms 
                F 
I just want to fall asleep 
                C 
I just want to fall asleep 
                F 
I just want to fall asleep 
                C C/B F G  
Inside your arms 


Bridge 1
 F 
    We're just lovers lovers 
 C  
    Under the covers covers 
 F C C/B  
    We got each other each other now 
 F 
    We're just lovers lovers 
 C  
    Under the covers covers 
 F C C/B  
    We got each other each other now 


Bridge 2 (barred)
    F C F C C /B 
Woah   yeah  woah  oh yeah 
    F C F C C /B   F 
Woah   yeah  woah  oh yeah 


Chorus 
                F 
I just want to fall asleep 
                C 
I just want to fall asleep 
                F 
I just want to fall asleep 
             C 
Inside your arms 
             C  
Inside your arms 
             C  
Inside your arms 
             C 
Inside your arms

Asleep Tabs by Smiths V2

 -------------------------------------------------------------------------------
                             ASLEEP - The Smiths
-------------------------------------------------------------------------------
: Markus Björk
 markus.bjork77

Originally played on piano, this tab is arranged for guitar.

, so it might be off in timings. But the notes are correct (the way I play 
it) so learn it and make your own pace and pauses for the right sound.

This is like the main melody. Once you get the hang of it, try adding some extra notes 
to fill it out.

Good luck!


Tuning: Standard tuning E-A-D-G-B-e

Intro/Verse:

   C       F         Am      F
e|-1-0-----0---------1-0---------|
B|-1-1---3-1-----1---1-1---3-1---|
G|-------0-2---2---2-------2-2---|
D|-------------------------------|
A|-3---3-------------0---0-------|
E|---------1-1---------------1---|

   F       G       Am    F           G
e|-----------------------0-----------------|
B|-----1-----0---3---1-0-1-------------0---|
G|---2-------0-------2-2-2-2-0-2-2-----0-0-|
D|-----------------------------------------|
A|-----------------0-----------------------|
E|-1-----1/3---3---------1---------1-3-----|

Verse ending 2nd time:

   F       G       Am    F
e|-----------------------0-----------------|
B|-----1-----0---3---1-0-1-----------------|
G|---2-------0-------2-2-2-2-0-2-2---0-----|
D|-------------------------------------0---|
A|-----------------0---------------------0-|
E|-1-----1/3---3---------1---------1-------|

This gets you right into the middle part…

Middle:

   G
e|-------------------------------------------------|
B|-----0-----1---0-------------0-----1---0-----0---|
G|---0---0---------0---0-----0---0---------0-----0-|
D|-------------------0---0-------------------0-----|
A|-------------------------------------------------|
E|-3-------3---3-----------3-------3---3-----------|

   F             F
e|-0-------------0-----------------|
B|-1-------------1-----------------|
G|-2-2-0-2-2-----2-2-0-2-2---0-----|
D|-----------------------------0---|
A|-------------------------------0-|
E|-1---------1---1---------1-------|

Ending:

It starts off with the last part of the middle piece but without the down stroke to G.

   F             F
e|-0-------------0-----------|
B|-1-------------1-----------|
G|-2-2-0-2-2-----2-2-0-2-2---|
D|---------------------------|
A|---------------------------|
E|-1---------1---1---------1-|

And lands in:

   F         G       F
e|-0---------0-------0-------------|
B|-1-------3---0-0-3-------1-------|
G|-2-2-0-2-------------2-----2-----|
D|-------------------------------0-|
A|---------------------------------|
E|-1---------3-------1---1-----1---|

Repeat as many times you like before hitting:


e|-0---------0-------|
B|-1-------3---0-0---|
G|-2-2-0-2---------0-|
D|-------------------|
A|-------------------|
E|-1---------3-------|

Which brings you back to verse 2.



************************************

| /   slide up
| \   slide down
| h   hammer-on
| p   pull-off
| ~   vibrato
| +   harmonic
| x   Mute note
| b   Bend
| pb  Pre-bend
| br  Bend release
| pbr Pre-bend release
| brb Bend release bend

************************************

Asleep At The Wheel Tabs by Band Of Skulls

 Band Of Skulls - Asleep At the Wheel

: !Guit4Rist!

Tuning: Drop D (DADGBe)

Hello everyone, this is my first guitar tab I have written up. 
I am pretty sure these are the right notes which are played in the song, 
I hope it's enough for all of you guitarists to play with the song

 Intro:
   
 e|-----------------------------------------------------------------|
 B|-----------------------------------------------------------------|
 G|-----------------------------------------------------------------|
 D|-----------------------------------------------------------------|
 A|-5---5---5---5---5---5---5---5---5---5---5---5---5---5---5---5---|
 D|-----------------------------------------------------------------|
  
 Verse 1: 

 e|-------------------------------------------------------------------|
 B|-------------------------------------------------------------------|  -|
 G|-------------------------------------------------------------------|   |
 D|-------------------------------------------------------------------|   |
 A|-5-8-5---5---5---5---5---5-8-5-------------------------------------|   |
 D|---------------------------------7-10-7---7---7---7---7---7-10-7---|   |
                                                                          |
                                                                         x3
                                                                          |
 e|--------------------------------------------------------------------|  |
 B|--------------------------------------------------------------------|  |
 G|--------------------------------------------------------------------|  |
 D|--------------------------------------------------------------------|  |
 A|------------------------------------------------------0-------0-----| -|
 D|-8-12-8---8---8---8---8---8-12-8---7-10-7---7---7---3---3---2---2---| 


 e|-------------------------------------------------------------------|
 B|-------------------------------------------------------------------|  
 G|-------------------------------------------------------------------|   
 D|-------------------------------------------------------------------|   
 A|-5-8-5---5---5---5---5---5-8-5-------------------------------------|   
 D|---------------------------------7-10-7---7---7---7---7---7-10-7---|   
                                                                          
 e|---------------------------------------|  
 B|---------------------------------------|  
 G|---------------------------------------|  
 D|---------------------------------------|  
 A|---------------------------------------| 
 D|-8-12-8---8---8---8---8---8-12-8---7---|

 Chorus 1:

 e|----------------------------------------------------|
 B|----------------------------------------------------|
 G|----------------------------------------------------|
 D|---------------------------------------------3-0p---|
 A|-----------------5-3-0-------------------3-5h-------|
 D|-3---4---5---0---------5---3---4---5---0------------| 

 e|--------------------------------------|
 B|--------------------------------------|
 G|--------------------------------------|
 D|--------------------------------------|
 A|-----------------5-3-0----------------|
 D|-3---4---5---0---------5--3---4---5---| 

 Verse 2: 

 e|-------------------------------------------------------------------|
 B|-------------------------------------------------------------------|  -|
 G|-------------------------------------------------------------------|   |
 D|-------------------------------------------------------------------|   |
 A|-5-8-5---5---5---5---5---5-8-5-------------------------------------|   |
 D|---------------------------------7-10-7---7---7---7---7---7-10-7---|   |
                                                                          |
                                                                         x3
           

Qeaux Qeaux Joans – While The Whole World Is Asleep chords

 %=repeat last played chord; 6/8e (time signature)

Vers 1:
|  Em  | %|
So why whats going on
|  Am  |  G  |
I knew it all along
|  Em  | % |
About the girl I just couldnt be
|  Am  |  B7  |
I knew she was the one

Vers 2:
I got high so unwell
I drove home without using a safety bell
It was cause of the girls
They were the ones stopping me from hurting myself

Refr:
|  Em  |  B7  |  G  |  Am  |
Why the whole world is asleep
|  C  | % |  B7  | % |
Lonely feeling slowly creeps up on me
|  Em  |  B7  |  G  |  Am  |
Im afraid heartache in love
|  C  | % |  B7  | % |
I dont want to  but I got to let him go

Vers 3/4:
I told him I said no
Not so long ago
And if you want to stick around
Its about time he showed
The love he never shared
And the passions he had
coming from what we did
Wasnt enough to make it last

Refr.

Bridge:
|  Am  | % |  G  | % |
Im alive its always wine
|  B7  | % | 
From how I curse the night
|  Em  –  Em/F#  |  Em/G  -   Em/G#  |
When Im in overdrive
|  Am  | % |
Please dont justify
|  G  | % |
Because nothing aint right
|  B7  | % | % | % |
My mastermind is occupied

Refr. 2x