Tag: at

High Hopes piano chords by Panic! At the Disco

[Intro]
Bb   F   Dm   C
Bb   F   Dm   Am

[Chorus]
            Bb                     F
Had to have high, high hopes for a living
                 Dm                           C
Shooting for the stars when I couldn't make a killing
              Bb                      F
Didn't have a dime but I always had a vision
           Dm         Am
Always had high, high hopes

            Bb                     F
Had to have high, high hopes for a living
            Dm                     C
Didn't know how but I always had a feeling
            Bb                F
I was gonna be that one in a million
           Dm         Am
Always had high, high hopes

[Verse 1]
     Bb
Mama said
F
Fulfill the prophecy
Dm
Be something greater
C
Go make a legacy
Bb
Manifest destiny
F
Back in the days
          Dm          Am
We wanted everything, wanted everything

     Bb
Mama said
F
Burn your biographies
Dm
Rewrite your history
C
Light up your wildest dreams
Bb                F
Museum victories, everyday
          Dm          Am
We wanted everything, wanted everything

[Pre-Chorus]
    F               A           Dm         Bbm
Mama said don't give up, it's a little complicated
         F          A             Dm              Bbm
All tied up, no more love and I'd hate to see you waiting

[Chorus]
            Bb                      F
Had to have high, high hopes for a living
                 Dm                           C
Shooting for the stars when I couldn't make a killing
              Bb                      F
Didn't have a dime but I always had a vision
           Dm         Am
Always had high, high hopes

            Bb                     F
Had to have high, high hopes for a living
            Dm                     C
Didn't know how but I always had a feeling
            Bb               F
I was gonna be that one in a million
           Dm         Am
Always had high, high hopes

[Verse 2]
     Bb
Mama said
F
It's uphill for oddities
Dm
The stranger crusaders
C
Ain't ever wannabes
Bb
The weird and the novelties
F
Don't ever change
          Dm                 Am
We wanted everything, wanted everything

Bb             F
Stay up on that rise
                Dm                  C
Stay up on that rise and never come down
Bb              F
Stay up on that rise
                Dm                 
Stay up on that rise and never come down

[Pre-Chorus]
F                    A          Dm           Bbm
Mama said don't give up, it's a little complicated
         F             A            Dm            Bbm
All tied up, no more love and I'd hate to see you waiting
             F                        A                       Dm   Bbm
They say it's all been done but they haven't seen the best of me
         F            A                            Dm    Bbm
So I got one more run and it's gonna be a sight to see

[Chorus]
            Bb                     F
Had to have high, high hopes for a living
                 Dm                           C
Shooting for the stars when I couldn't make a killing
              Bb                      F
Didn't have a dime but I always had a vision
           Dm         Am
Always had high, high hopes

            Bb                     F
Had to have high, high hopes for a living
            Dm                     C
Didn't know how but I always had a feeling
            Bb               F
I was gonna be that one in a million
           Dm         Am
Always had high, high hopes

            Bb                     F
Had to have high, high hopes for a living
                 Dm                           C
Shooting for the stars when I couldn't make a killing
              Bb                      F
Didn't have a dime but I always had a vision
           Dm         Am
Always had high, high hopes

            Bb                     F
Had to have high, high hopes for a living
            Dm                     C
Didn't know how but I always had a feeling
            Bb               F
I was gonna be that one in a million
           Dm         Am
Always had high, high hopes

Dying In La piano chords by Panic! At the Disco

[Intro]
Fm7  F  C  Em7

[Verse 1]
    Fm7                    F
The moment you arrived they built you up
    C                   Em7
The sun was in your eyes
               Fm7 F C  Em7
You couldn't believe it
Fm7               F
Riches all around, you're walking
C                       Em7
Stars are on the ground
               Fm7 F C  Em7
You start to believe it

[Pre-Chorus]
Am                   Em7            C                  F
Every face along the boulevard is a dreamer just like you
Am                       Em7                C                   F
You looked at death in a tarot card and you saw what you had to do

[Chorus]
    C      Am        F
But nobody knows you now
            Em       G
When you're dying in LA
    C      Am       F
And nobody owes you now
            Em       G
When you're dying in LA
            C       Am Em
When you're dying in LA
            C       Am Em
When you're dying in LA
    C          C          C
The power, the power, the power
       F          F          F
Oh the power, the power, the power
    C    Am    Em
Of LA

[Interlude]
C  Am  Em

[Verse 2]
Fm7              F
Nights at the chateau
                C              Em7
Trapped in your sunset bungalow
               Fm7 F C  Em7
You couldn't escape it, yeah
Fm7          F
Drink of paradise
                 C                Em7
They told you to put your blood on ice
                 Fm7 F C  Em7
You're not gonna make it

[Pre-Chorus]
Am                   Em7            C                 F
Every face along the boulevard is a dreamer just like you
Am                       Em7                C                   F
You looked at death in a tarot card and you saw what you had to do

[Chorus]
    C      Am        F
But nobody knows you now
            Em       G
When you're dying in LA
    C      Am       F
And nobody owes you now
            Em       G
When you're dying in LA
            C       Am Em
When you're dying in LA
            C       Am Em
When you're dying in LA
    C          C          C
The power, the power, the power
       F          F          F
Oh the power, the power, the power
    C    Am   Em
Of LA

[Outro]
C    Am    Em
C    Am    Em
C    Am    Em
F          C

Too Good At Goodbyes chords by Sam Smith

[Verse 1]
Am                         C
  You must think that I'm stupid
G                           Dm
  You must think that I'm a fool
Am                         C
  You must think that I'm new to this
G                            Dm 
  But I have seen this all before

[Pre-Chorus]
    Am
I'm never gonna let you close to me
C
Even though you mean the most to me
       G                        Dm
'Cause every time I open up, it hurts
       Am
So I'm never gonna get too close to you
C
Even when I mean the most to you
   G                               Dm
In case you go and leave me in the dirt

[Refrain]
               Am                         C
Every time you hurt me, the less that I cry
                   G                               Dm
And every time you leave me, the quicker these tears dry
                   Am                         C
And every time you walk out, the less I love you
                       G                           Dm
Baby, we don't stand a chance, it's sad but it's true

[Chorus]
                         Am                            C
I'm way too good at goodbyes (I'm way too good at goodbyes)
                         G                             Dm
I'm way too good at goodbyes (I'm way too good at goodbyes)

[Verse 2]
Am                            C
  I know you're thinking I'm heartless
G                             Dm
  I know you're thinking I'm cold
Am                        C
  I'm just protecting my innocence
G                         Dm
  I'm just protecting my soul

[Pre-Chorus]
    Am
I'm never gonna let you close to me
C
Even though you mean the most to me
       G                        Dm
'Cause every time I open up, it hurts
       Am
So I'm never gonna get too close to you
C
Even when I mean the most to you
   G                               Dm
In case you go and leave me in the dirt

[Refrain]
               Am                        C
Every time you hurt me, the less that I cry
                   G                               Dm
And every time you leave me, the quicker these tears dry
                   Am                         C
And every time you walk out, the less I love you
                        G                         Dm
Baby, we don't stand a chance, it's sad but it's true

[Chorus]
                         Am                            C
I'm way too good at goodbyes (I'm way too good at goodbyes)
                         G                             Dm
I'm way too good at goodbyes (I'm way too good at goodbyes)
                          Am                              C
No way that you'll see me cry (No way that you'll see me cry)
                         G                             Dm
I'm way too good at goodbyes (I'm way too good at goodbyes)
Am                                             C
  No, no, no, no, no (I'm way too good at goodbyes)
G                                                      Dm
  No, no, no, no, no, no, no (I'm way too good at goodbyes)
Am                            C
  (No way that you'll see me cry)
G                           Dm
  (I'm way too good at goodbyes)

[Outro]
               Am                        C
Every time you hurt me, the less that I cry
                   G                               Dm
And every time you leave me, the quicker these tears dry
                   Am                        C
And every time you walk out, the less I love you
                        G                         Dm
Baby, we don't stand a chance, it's sad but it's true
N.C.
I'm way too good at goodbyes

Too Good At Goodbyes Acoustic chords by Sam Smith Ver 2

[Verse 1]
Am                          C
   You must think that I'm stupid
G                           Fmaj7
   You must think that I'm a fool
Am                          C
   You must think that I'm new to this
G                           F
   But I have seen this all before

[Refrain]
 Am
I'm never gonna let you close to me
 C
Even though you mean the most to me
 G                               Fmaj7
'Cause every time I open up, it hurts
 Am
So I'm never gonna get too close to you
 C
Even when I mean the most to you
 G                                  F
In case you go and leave me in the dirt

[Pre-Chorus]
                   Am                       C
And every time you hurt me, the less that I cry
                   G                            F
And every time you leave me, the quicker these tears dry
                   Am                        C
And every time you walk out, the less I love you
                       G                         F
Baby, we don't stand a chance, it's sad but it's true

[Chorus]
                        Am
I'm way too good at goodbyes

(I'm way too good at goodbyes)
C                         G
  I'm way too good at goodbyes
                              F
(I'm way too good at goodbyes)

[Verse 2]
Am                            C
   I know you're thinkin' I'm heartless
G                             Fmaj7
   I know you're thinkin' I'm cold
Am                        C
   I'm just protectin' my innocence
G                         F
   I'm just protectin' my soul

[Refrain]
 Am
I'm never gonna let you close to me
 C
Even though you mean the most to me
 G                               Fmaj7
'Cause every time I open up, it hurts
 Am
So I'm never gonna get too close to you
 C
Even when I mean the most to you
 G                                  F
In case you go and leave me in the dirt

[Pre-Chorus]
                   Am                       C
And every time you hurt me, the less that I cry
                   G                            F
And every time you leave me, the quicker these tears dry
                   Am                        C
And every time you walk out, the less I love you
                       G                         F
Baby, we don't stand a chance, it's sad but it's true

[Chorus]
                        Am
I'm way too good at goodbyes

(I'm way too good at goodbyes)
C                         G
  I'm way too good at goodbyes
                              F
(I'm way too good at goodbyes)
                          Am
No way that you'll see me cry

(No way that you'll see me cry)
C                        G
  I'm way too good at goodbyes
                              F
(I'm way too good at goodbyes)

[Bridge]
No
Am
No, no, no, no, no
(I'm way too good at goodbyes)
C
No, no, no, no
G
No, no, no
                              F
(I'm way too good at goodbyes)
Am                           C
  (No way that you'll see me cry)
Ahhh~
 G                            F
(I'm way too good at goodbyes)

[Outro]
                    Am                      C
And every time you hurt me, the less that I cry
                   G                           Fmaj7
And every time you leave me, the quicker these tears dry
                   Am                        C
And every time you walk out, the less I love you
                       G                         F
Baby, we don't stand a chance, it's sad but it's true
                       C
I'm way too good at goodbyes

At Calvary chords – Doyle Lawson

 G 
Years I’ve spent in vanity and pride

 D7 G 
Caring not my Lord was crucified 

    
Knowing not it was for me He died

    D7 G 
On Cal-va-ry


                         
By God’s word at last of sin I learned
 
 D7 G 
Then I trembled at the law I spurned

 
Till my guilty soul in glory returned

    D7 G 
To Cal-va-ry


 C G 
Mercy there was great and grace was free

 D7 G 
Pardon there was multiplied to me

 C G 
There my burdened soul found liberty

    D7 G 
At Cal-va-ry


       
Now I’ve given to Jesus everything

 D7 G 
Now I gladly own Him as my King


Now my raptured soul can only sing

    D7 G 
Of Cal-va-ry



Oh the love that drew salvation’s plan

    D7 G 
Oh the grace that brought it down to man

                  
Oh the mighty gulf that God did span

    D7 G 
At Cal-va-ry


 C G 
Mercy there was great and grace was free

 D7 G 
Pardon there was multiplied to me

 C G 
There my burdened soul found liberty

    D7 G 
At Cal-va-ry


 C G 
Mercy there was great and grace was free

 D7 G 
Pardon there was multiplied to me

 C G 
There my burdened soul found liberty

    D7 G 
At Cal-va-ry


 C G 
There my burdened soul found liberty

    D7 G 
At Cal-va-ry

Youre Laughing At Me chords – Ella Fitzgerald

 YOU'RE LAUGHING AT ME - ELLA FITZGERALD
"Ella Swings Gently with Nelson"(1962)
ClassicalfreaK


 Gm  GmM7  Gm9 Gm6 Eb9 F7 Cm7 F7 BbM7 Gm7 
I love you which is easy to see
                    Cm7 F7 
But I have to keep guessing
                    BbM7 Bb9 
How you feel about me
     EbM7 Eo7 Bb/F Go7 
You listen to the words that I speak
                     Cm7 F7b9 
But I feel that you listen with your 
               Bb  Bb+ Bb6 Bb+
Tongue in your cheek

 Bb6 Ebm7/Bb 
You're laughing at me
                 F7 
I can't be sentimental
     BbM7 Eo7 Bb Gm9 BbM7 
For you're laughing at me, I know
 DbM7 
I want to be romantic
But I haven't a chance
 FM7 Eo7 
You've gotta sense of humor
     Cm7 F7 
And humor is death to romance

 Bb6 
You're laughing at me
Why do you think it's funny
        Eo7 D7b9 
When I say that I love you so?
 Gm7 Fm7 Bb9 EbM7 Ebm7 Dm7 
 You've got me  worried and I'm all at sea
     Dbo7 C7 Bo7 Cm7 
For while I'm crying for you
 F7 Bb        
You're laughing at me

 [trb. solo]
 Cm7 F7 Bb6 Ebm7/Bb Bb F7 Bb Eo7 D7b9 Gm7 Fm7 Bb7 Eb Ebm7 Dm7 
 You've got me  worried and I'm all at sea
 Dbo7 C9 Bo7 Cm7 
For while I'm crying for you
 F7 Bb Ebm7 
You're laughing at me, laughing at me
 BbM9 
Laughing at me
 BbM9

The End Of All Things Tabs – Panic! At The Disco Vsion 3

 : jcameronp
Tuning: standard, capo on 1 (notes relative to capo, so fret 7 with capo on 1 is actually played at fret 8)


Intro:

(make sure to emphasize the high e of every chord)

e|-0~-3-5-7~-2~-0~-3-5--10~-5~-3~-3-5-7~-2~-0~-3-5-10-5-3~-------------------|
B|-0~-----0~-3~-0~------7~--x~-0~-----0~-3~-0~----------0~-------------------|
G|-0~-----0~-2~-0~------7~--4~-0~-----0~-2~-0~----------0~-------------------|
D|-2~-----5~-0~-2~------7~--4~-2~-----5~-0~-2~----------2~-------------------|
A|-3~-----7~----3~------9~--5~-3~-----7~----3~----------3~-------------------|
E|---------------------------------------------------------------------------|

Verse:

Whether near or far...

e|-3-5-7~-2~-0~-3-5-10~-5~-3~-3-5-7~-2~-3-5-7~-7-7-5~------------------------|
B|-----0~-3~-0~-----7~--x~-0~-----0~-3~-----0~-----x~------------------------|
G|-----0~-2~-0~-----7~--4~-0~-----0~-2~-----0~-----4~------------------------|
D|-----5~-0~-2~-----7~--4~-2~-----5~-0~-----5~-----4~------------------------|
A|-----7~----3~-----9~--5~-3~-----7~--------7~-----5~------------------------|
E|---------------------------------------------------------------------------|

Prechorus:

Lay us down...

e|-3-----5-------7---------5-5-7---------5-----------------------------------|
B|-1-----3-------8---------3-3-5---------3-----------------------------------|
G|-0-----4-----------------4-4-4---------4-----------------------------------|
D|---------------------------------------------------------------------------|
A|---------------------------------------------------------------------------|
E|---0-0---0-0-0---0-0-0-0-------0-0-0-0---0-0-0-0---------------------------|

e|-3-----5-------7---------5-3-7---------5-----------------------------------|
B|-1-----3-------8---------3-1-5---------3-----------------------------------|
G|-0-----4-----------------4-0-4---------4-----------------------------------|
D|---------------------------------------------------------------------------|
A|---------------------------------------------------------------------------|
E|---0-0---0-0-0---0-0-0-0-------0-0-0-0---0-0-0-0---------------------------|

Guitar 2 (optional along with piano)

e|-16-18-20-18-18-20-18--16-18-20-18-16-23-----------------------------------|
B|---------------------------------------------------------------------------|
G|---------------------------------------------------------------------------|
D|---------------------------------------------------------------------------|
A|---------------------------------------------------------------------------|
E|---------------------------------------------------------------------------|

Chorus:

e|-23-22-18-23-22-18-23-22-18-20---------------------------------------------|
B|---------------------------------------------------------------------------|
G|---------------------------------------------------------------------------|
D|---------------------------------------------------------------------------|
A|---------------------------------------------------------------------------|
E|---------------------------------------------------------------------------|

or if your guitar doesn't have that many frets you can play

e|-11-10----11-10----11-10---------------------------------------------------|
B|-------11-------11-------11-13---------------------------------------------|
G|---------------------------------------------------------------------------|
D|---------------------------------------------------------------------------|
A|---------------------------------------------------------------------------|
E|---------------------------------------------------------------------------|

e|---------------------------------------------------------------------------|
B|---------------------------------------------------------------------------|
G|-0-2-4---------------------------------------------------------------------|
D|-----5-------4-------------------------------------------------------

Girl At The Coffee Shop chords – Jeff Bernat

 Learned By Ear :)
Link to song: https://www.youtube.com/watch?v=GIZvZlks_AE
CAPO 4

Chords:
     Cmaj7 Am7 Fmaj7 Aadd9 E 
e|---x----x----0----3----x-----|
B|---0----1----1----1----1-----|
G|---0----0----2----2----x-----|
D|---2----2----3----3----x-----|
A|---3----0----x----x----x-----|
E|---x----x----x----x----x-----|

Intro: 
 Cmaj7 Am7 Fmaj7 E Cmaj7 Am7 Aadd9 E 
[x2]

[Verse]:
     Cmaj7 
So the other day
                   Am7 
I was chilling at Starbucks
      Fmaj7 E 
Down the street
   Cmaj7 
I saw a lady with
                Am7 Aadd9 
some books and coffee
 E Cmaj7 
And she was so beautiful
                     Am7 Fmaj7 
With headphones and glasses on
   E 
I didn't know
 Cmaj7 
what to do or say
              Am7 
Hoping she'd come
               Aadd9 
right through my way
      E Cmaj7 
It s those moments
             Am7 Fmaj7 
It s those regrets
          E Cmaj7 
When you wish you could
                            Am7 Aadd9 
rewind the times that you messed up
   E Cmaj7 
I didn t even say hello
               Am7 Fmaj7 E 
I didn t even catch her name
     Cmaj7 
She looked right at me
                    Am7 Aadd9 
Smiled and walked away
       E 
And I think that


[Chorus]:
 Cmaj7 Am7 
I am falling for the girl
    Fmaj7 E 
at the coffee shop
 Cmaj7 
Don t know her name
            Am7 Aadd9 E 
But it's her that I am thinking of
 Cmaj7 
Never would've guessed that
      Am7 Fmaj7 E 
I d fall for a stranger
 Cmaj7 
Never thought that
              Am7 Aadd9 E Cmaj7 Am7 
I'd fall in love with the girl at the coffee shop yeah
               Fmaj7 E Cmaj7 Am7 Aadd9 E 
With the girl at the coffee shop, yeah


[Bridge]:
     Cmaj7 
So I went back and I didn t see her there
          Am7 Fmaj7 
Just the smell of chocolate and caramel
 E Cmaj7 
in the air sitting down
                        Am7  
As time passes by with tear drops in eyes
  Aadd9 E Cmaj7 
with sadness in size

No one replies 70 minutes have passed
        Am7 
Have you seen a girl
                 Fmaj7 E 
with headphones and some books may I ask
       Cmaj7 
I knew I should've approached her with the chance that I had
              Am7 
Or at least, asked for her number
 Aadd9 E 
I can type it in my keypad
 Cmaj7 
  All of a sudden beauty walks in
        Am7 
with her headphones on
     Fmaj7 E 
And her books in her hand
 Cmaj7 
  Walks up to the register
                             Am7 
cinnamon dolce latte with a cookie on the side
     Aadd9 E 
and uh make that drink frothy
 Cmaj7 
I'm slowly walking up to her as I approached the register
 Am7 Fmaj7 
 Looking at the book she has
              E 
Mitch alboms the author
   Cmaj7 
I said How You Doin' Hi My Name Is Jeffery
      Am7

Dont Threaten Me With A Good Time solo Tabs – Panic! At The Disco Vsion 2

 -------------------------------------------------------------------------------
               DON'T THREATEN ME WITH A GOOD TIME - Panic! At the Disco
-------------------------------------------------------------------------------
: thanic
 ethanrocketman2
Note:  so it might not be 10/10...
Tuning: Standard

Intro riff. 

e|---------------------------------------------------------------------------|
B|---------------------------------------------------------------------------|
G|----------------------6----------------------------------------------------|
D|--------------7676-6------7----------7676--------------------------7676-6--|
A|-----6-76---------------------76--------------------------6-76-------------|
E|--9--------9-----------------------9-------------------9--------9----------|

Rest of the parts with riff.

e|---------------------------------------------------------------------------|
B|---------------------------------------------------------------------------|
G|---------------------------------------------------------------------------|
D|--------------7676-6--------------7676-----------------------------------------|
A|------7-76--------------6-76-----------------------------------------------|
E|--9--------9---------9---------9------------------------------------------|

Jennifer Jason Leigh – Jim Jones At Botany Bay Tabs

 -------------------------------------------------------------------------------
            Jim Jones at Botany Bay -- "The Hateful Eight" version
-------------------------------------------------------------------------------
: FeynmansZombie

Tuning: half-step down

This is the version of the song played by Daisy (Jennifer Jason Leigh) in Tarantino's movie "The Hateful Eight."
Probably the best scene of the movie. As far as I can tell, it's an original arrangement - I tabbed it by ear
by listening to the soundtrack. This version is more similar to "Skibbereen" than it is to other versions of 
"Jim Jones at Botany Bay." The lyrics are also different in some places (especially the last line).

It's all four chords - stick to them and you can make up your own flourishes if you like. I won't pretend to 
know every note and nuance, but this was basically a live performance so it wouldn't do to be too scripted. For
instance, you could play G with the B string open or 3, or switch it up as you please.

Intro (also a motif that appears in every line):

eb|--------------------------------------------|
Bb|-------0------------------0-----------------|
Gb|----------------0-------------------0-------|
Db|--------------------------------------------|
Ab|-----------0h2-----------------0h2----------|
Eb|--0------------------0----------------------|



1st Verse:


      G                                    Am                Em
eb|---------------------------------------------------------------------------|
Bb|--------3-----------------3------------------1-----------------0-----------|
Gb|-----------------0-----------------0------------------2------------------0-|
Db|---------------------------------------------------------------------------|
Ab|------------------------------1---------0--------0------------------0h2----|
Eb|---3--------3--------3------------------------------------0----------------|

      Listen   for a    moment   lads, and hear me  tell my  tale,



     C                 G                 Am                Em
eb|---------------------------------------------------------------------------|
Bb|-------1-----------------3-----------------1-----------------0-------------|
Gb|----------------0-----------------0-----------------2-----------------0----|
Db|---------------------------------------------------------------------------|
Ab|--3--------3-----------------1--------0--------0-----------------0h2-------|
Eb|--------------------3-----------------------------------0------------------|

 How o'er the sea from England's shore I was con- demned to sail.


                                                       Notice the extra two beats ------
                                                       at the end of some lines.        |
                                                                                        |
                                                                                        |
                                                                                        V
     C                 G                 Am                Em
eb|--------------------------------------------------------------------------------------------|
Bb|-------1-----------------3-----------------1-----------------0------------------0-----------|
Gb|----------------0-----------------0-----------------2-----------------0-------------------0-|
Db|--------------------------------------------------------------------------------------------|
Ab|--3--------3-----------------1--------0--------0-----------------0h2---------------0h2------|
Eb|--------------------3-----------------------------------0-----------------0-----------------|

 The jury     found me "guilty  sir" and said the judge said he,


     Am                Em                 Am                Em
eb|-------------------------------------------------------------------------------------------|
Bb|------1------------------0-----------------1-----------------

Angels Serenade chords – Hearts At War

    Artist: Hearts at War
                    http://www.heartsatwar.com/
                YT: http://www.youtube.com/user/DookiefiedOfficial
   Song: Angel's Serenade
                  From album "Nowhere Kids" (2015)
                  


!!! HALF-STEP DOWN TUNING !!!
Transpose -1 (half-step) to play In standard tuning.


Verse:
  D 
   Angels serenading
  Bm A 
   Every nerve vibrating and I
                    G 
   I don't dare to move

  D 
   Safe from a world of harm
  Bm 
   Back in my mother's arms
    A G 
   I feel her beating heart


Chorus:
  D Bm A 
   I'm one with the sun and the stars
        G D 
   And everything that we are
              Bm A 
   I feel it, I see it, I know
           G D 
   I must never let go


Verse:
  D 
   Chasing fireflies
  Bm 
   The mesmerizing lights
    A G 
   I'm drifting high as a kite

  D 
   Like a soothing lullaby
  Bm 
   Like a summer breeze in July
    A G 
   I'm carried by the divine


Chorus:
  D Bm A 
   I'm weightless, drifting astray
      G D 
   A thousand light years away
                 Bm A 
   The grace and the heavenly frame
           G                   
   I wish all could feel the same


Bridge:
         F#m 
   I'll tell you I've been there
              Bm 
   Where the stars are aligned
        A 
   Catapulted through dimensions
           G 
   Places no one could find

    F#m 
   Secret doors, hallways
             Bm 
   Reaching out with no end
      A 
   Embraced by the beauty

   Like a long lost friend


[ INSERT SOLO HERE ]   D Bm A    X2


Chorus:

   Chorus:
  D Bm A 
   I'm one with the sun and the stars
        G D 
   And everything that we are
              Bm A 
   I feel it, I see it, I know
           G D 
   I must never let go

                   Bm A 
   I'm weightless, drifting astray
      G D 
   A thousand light years away
                 Bm A 
   The grace and the heavenly frame
           G D 
   I wish all could feel the same

Dont Make Me Feel At Home chords – Tim McGraw

 INTRO:  D A D A 

VERSE 1:

 D Am D7  
Room number ten, at the Holiday Inn
 G D/F# Em  
I softly knocked upon the door
      A                       
Both excited and ashamed, I slipped off my ring
     D A     
Something I've never done before

VERSE 2:

     D Am D7  
The door opened wide, she welcomed me inside
 G D/F# Em   
Took my coat and offered me a drink
 A     
I just shook my head,sat down on the bed
 D A   
Looked her in the eye, and said, "No Thanks"

CHORUS:
                       D  
Don't make me feel at home
        D7 D G 
Cause, there ain't nothing there but wood and stone 
 G D/F# Em A  
Loneliness is all, I feel inside those walls 
                D A7 
And I can't go on  
        Em A D      
Please make me feel the way
      D7 D G 
She  hasn't made me feel in way too long
 G D/F# Em A        
Warm me with your touch, Make me feel love
                       D 
Don't make me feel at home

BRIDGE:

 Bm F#m 
There's no love at home, Is it right or is it wrong
         Em A D   
Does it matter if no one really cares
 Bm F#m 
And when she took my hand, I told her once again
 E E7 A    
As I took the ribbon from her hair 

CHORUS: 
                       D  
Don't make me feel at home
        D7 D G 
Cause, there ain't nothing there but wood and stone 
 G D/F# Em A  
Loneliness is all, I feel inside those walls 
                D A7 
And I can't go on  
        Em A D      
Please make me feel the way
      D7 D G 
She  hasn't made me feel in way too long
 G D/F# Em A        
Warm me with your touch, Make me feel love
                       D 
Don't make me feel at home

TAG:
                   Em D G                                  
Warm me with your touch make me feel love
 A D A D 
Don't make me feel at home 

Wrong Side Of Town chords – Hearts At War

    Artist: Hearts at War
                    http://www.heartsatwar.com/
                YT: http://www.youtube.com/user/DookiefiedOfficial
   Song: Wrong Side of Town
                  From album "Nowhere Kids" (2015)
                  


Verse:
           Bb F 
   We had dreams of fame and succes
        Eb Bb F 
   But look at you now, a sickly mess
            Bb F 
   Used to be joke now it's not so cool
           Eb F 
   You're looking like a fool

          Bb F 
   I was there when you wept, stripped off your pride
             Eb Bb F 
   When you crawled in the gutter I was at your side
          Bb F 
   But I can't do this, watch you fall apart
       Eb F 
   It breaks my heart


Chorus:
                  Bb Gm F Eb 
   You're on the wrong side of town (and I can't help you)
    Bb Gm F Eb  
   Wrong side of town (and I can't help you)
    Bb Gm F Eb 
   Wrong side of town (and I can't help you)
    Bb Gm F       
   Wrong side of town


Verse:
         Bb F 
   It's been 6 months still think of you
            Eb Bb F 
   Are you still shooting dope with the same old crew
           Bb F 
   Man, I know you come from a broken home
                 Eb F 
   But you were never alone

        Bb F 
   But some seem bound to burn out quick
         Eb Bb F 
   Live fast, die young, it's the same old shit
           Bb F 
   It was all revolution and teenage dreams
    Eb F 
   Suicidal schemes


Chorus:
                  Bb Gm F Eb 
   You're on the wrong side of town (and I can't help you)
    Bb Gm F Eb  
   Wrong side of town (and I can't help you)
    Bb Gm F Eb 
   Wrong side of town (and I can't help you)
    Bb Gm F       
   Wrong side of town


Bridge:
  Eb Bb F 
   Tell me what you're looking for
  Eb Bb Bb Gm F 
   A purpose or just something to kill the bore
  Eb Bb F 
   Or maybe to go out in flames
  Eb Bb Bb Gm F 
   Misunderstood or pathetically self-proclaimed


Chorus:
                  C Am G F 
   You're on the wrong side of town (and I can't help you)
    C Am G F  
   Wrong side of town (and I can't help you)
    C Am G F 
   Wrong side of town (and I can't help you)
    C Am G       
   Wrong side of town

At The Corner Of Walk And Dont Walk chords – Rhonda Vincent

 C F 
I'm callin' from a pay phone I was headin' out of town

 G7 F G7 C 
I really Meant to leave this time but I guess I'm havin' doubts

                                    C7 F 
It's hard for me to walk away from all we could've had

    G7 C 
So I'm callin' just to tell you where I'm at


                                              C7 F 
I'm at the corner of walk and don't walk and I can't make up my mind

 G7 F G7 C 
One way leads me back to you and one leaves you behind

                                    C7 F 
I'm standin' at the crossroads and I'm really in some pain

        G7 F G7 C 
At the corner of walk and don't walk darlin' and the light's about to change


                                   F 
I'm hopin' that you'll tell me to turn my car around

 G7 F G7 C 
That you never meant to hurt me and you'll make things right somehow

                                         C7 F 
But the phone just keeps on ringin' and though my heart's had enough

   G7 C 
I just can't bring myself to hang it up


                                              C7 F 
I'm at the corner of walk and don't walk and I can't make up my mind

 G7 F G7 C 
One way leads me back to you and one leaves you behind

                                    C7 F 
I'm standin' at the crossroads and I'm really in some pain

        G7 F G7 C 
At the corner of walk and don't walk darlin' and the light's about to change


        G7 F G7 C 
At the corner of walk and don't walk darlin' and the light's about to change

Weight Of The World chords – Hearts At War

    Artist: Hearts at War
                    http://www.heartsatwar.com/
                YT: http://www.youtube.com/user/DookiefiedOfficial
   Song: Weight of the World
                  From album "Nowhere Kids" (2015)
                  


!!! HALF-STEP DOWN TUNING !!!
Transpose -1 (half-step) to play In standard tuning.(every note one fret down for riffs)!

(I'm not 100% sure of the endings of the riffs)


PART I:


Intro:

eb|-----------------------------9-9-------------------------------|
Bb|-----------------------------------9-9-------------------------|
Gb|/6-------4-6-6b-4---/9-9-7-6-----6-----------6-676-4-----------|
Db|-----7-7-------------------------------7-7-7-------------------|
Ab|---------------------------------------------------------------|
Eb|---------------------------------------------------------------|

                   A F#m E 
   I can take the pain, you know I won't stand down
             F#m D E 
   I rather bleed, than to give up my mind
                    A F#m E 
   I'm filled with rage, and emotional issues
                 D A E 
   I don't know why and I really don't care


PART II:


Chorus:
       D E A 
   Confined to his own private hell
       D E F#m 
   He knows the pain all too well
     D E A F#m 
   Emerged with the scars and a story to tell
        D E A 
   The ballad of Maxwell's hell
        D E A 
   The ballad of Maxwell's hell

Verse:
        D C#m F#m 
   You talk and you talk I just want you to leave
          D C#m F#m 
   Cause you don't really know a goddamn thing about me
         D C#m F#m 
   I've heard your confessions I know your black heart
                E 
   I know that part...

Chorus:
       D E A 
   Confined to his own private hell
       D E F#m 
   He knows the pain all too well
     D E A F#m 
   Emerged with the scars and a story to tell
        D E A 
   The ballad of Maxwell's hell

Verse:
       D C#m F#m 
   So now you come around trying to be my best friend
       D C#m F#m 
   To look for redemption and ways to amend
        D C#m F#m 
   But you won't find salvation in me that's for sure
                 E 
   So close the door...

Chorus:
       D E A 
   Confined to his own private hell
       D E F#m 
   He knows the pain all too well
     D E A F#m 
   Emerged with the scars and a story to tell
        D E A 
   The ballad of Maxwell's hell
        D E A E 
   The ballad of Maxwell's hell


PART III:


eb|---------------------------------------------------------------|
Bb|---------------------------------------------------------------|
Gb|-6-4-6-4-6-4-6--4-4-4------------------6-6-6-4-----------------|
Db|----------------------6--7-6-7-6-7-6-7-------------------------|
Ab|---------------------------------------------------------------|
Eb|---------------------------------------------------------------|

eb|---------------------------------------------------------------|
Bb|----------------------

Virgin Suicide chords – Hearts At War

    Artist: Hearts at War
                    http://www.heartsatwar.com/
                YT: http://www.youtube.com/user/DookiefiedOfficial
   Song: Virgin Suicide
                  From album "Nowhere Kids" (2015)
                  

Intro:

    Bb Eb Bb Eb Bb Eb F     X3

Verse:
            Bb 
   You and I, let's go for a ride
    Gm 
   Shoot the moon, aim for the sky
          Dm F 
   We're nowhere kids, we don't know where we're going

      Bb 
   A burden to society
    Gm 
   Ignoring adversity
    Dm F 
   Running so fast even life cannot catch us

Chorus:
                Eb F 
   We'll never die, never grow old
             Bb F Gm F 
   And we refuse to be pushed and controlled
                   Eb 
   That's what we are
            F Bb     
   Bastard sons dressed in battle scars

[INTRO]

Verse:
    Bb  
   Heads filled with manic dreams
    Gm 
   Making plans and crazy schemes
         Dm F 
   We refuse to excuse our existence

    Bb      
   Turning inwards, locked inside
    Gm 
   Shutting out not trying to hide
    Dm F 
   Misunderstood and rejected

Chorus:
                Eb F 
   We'll never die, never grow old
             Bb F Gm F 
   And we refuse to be pushed and controlled
                   Eb 
   That's what we are
            F Bb Eb F Bb 
   Bastard sons dressed in battle scars

Bridge:
                         Eb F Bb 
   Where are we going?
                         Eb F Bb 
   I'll just follow you around
                     Eb F Bb   
   Like a couple of losers
                F 
   We're going down

 Chorus:
                Eb F 
   We'll never die, never grow old
             Bb F Gm F 
   And we refuse to be pushed and controlled
                   Eb 
   That's what we are
            F Eb     
   Bastard sons dressed in battle scars
                   F 
   That's what we are

[INTRO]

Rosewater Blues chords – Hearts At War

    Artist: Hearts at War
                    http://www.heartsatwar.com/
                YT: http://www.youtube.com/user/DookiefiedOfficial
   Song: Rosewater Blues
                  From album "Nowhere Kids" (2015)
                  


!!! HALF-STEP DOWN TUNING !!!
Transpose -1 (half-step) to play In standard tuning.

Intro:

    G C G C G C D 


Verse:
  G 
   I lie awake in the midnight hour
  C D 
   Talking to you in my head
  G 
   Oh baby the dress you're wearing
  C D 
   And those lips so cherry red

  G 
   You're too good to be true you are
  C D 
   The one I fantasize about
  G 
   Keep going, oh keep going
  C D 
   I wanna hear you scream and shout


Chorus:
  Am D 
   Oh I'm not lying
                  Em D C 
   I wasn't even trying to fall in love
  Am D 
   It's all so crazy
                   Em D C 
   And now she is all that I'm thinking of
             D 
   Thinking of


    G C G C G C D 


Verse:
   G 
   I lie awake in the midnight hour
   C D 
   Having a date on my own
   G 
   Rub it for luck and wave the wand well
   C D 
   What do you do when you're all alone

   G 
   I've composed a letter to you
   C D 
   The words I dear not to speak
   G 
   I even drew a heart and signed it
   C D 
   With a kiss, it's oh so neat

Chorus:
  Am D 
   Oh I'm not lying
                  Em D C 
   I wasn't even trying to fall in love
  Am D 
   It's all so crazy
                   Em D C 
   And now she is all that I'm thinking of
             D 
   Thinking of



[ INSERT SOLO HERE ]  G   C D  x3 
                       G C E 
   
( Key change 1 whole step up )


Verse:
   A 
   I lie awake in the midnight hour
   D E 
   Talking to you in my head
   A              
   Oh baby the dress you're wearing
   D E 
   And those lips so cherry red

   A  
   You're too good to be true you are
   D E 
   The one I fantasize about
   A 
   Keep going, oh keep going
   D E 
   I wanna hear you scream and shout

Chorus:
  Bm E 
   Oh I'm not lying
                  F#m E D 
   I wasn't even trying to fall in love
  Bm D 
   It's all so crazy
                   F#m E D 
   And now she is all that I'm thinking of


   A E 
   Oh I'm not lying
                  F#m E D 
   I wasn't even trying to fall in love
   A E 
   It's all so crazy
                   F#m E D 
   And now she is all that I'm thinking of
             E 
   Thinking of


    A D A D A D A

I Get So Mad At Me chords – Webb Pierce

 G C G D7 
I get so mad at me  ever time I see you out with him

          C D7 G 
I get so mad at me for letting you go


                  Em C 
I must have been crazy out of my mind

              G D7 
Oh how could anyone ever be so blind

 G C G D7 
I get so mad at me  ever time I see you kissing him

          C D7 G 
I get so mad at me for letting you go


                  Em C 
I must have been crazy out of my mind

              G D7 
Oh how could anyone ever be so blind

 G C G D7 
I get so mad at me  ever time I see you kissing him

          C D7 G 
I get so mad at me for letting you go


     D7 G D7 G 
For letting you go for letting you go

A Night At Daddy Gees chords – Showaddywaddy

 Come on everybody, 
We're going down to Daddy Gees! 
 D 
Well come on everybody, 
We're going down to Daddy Gees, 
 G 
We're gonna do some rock 'n' rolling, 
 D 
Like you ain't never seen, 
 A G 
So come on, with me, 
 D 
I said we're going down to Daddy Gees. 
 D 
Come on little Suzy 
I want you to come along too,
 G  
Take your shoes off, comb your hair down, 
 D 
I'm gonna dance on like you, 
 A G 
So come on, with me, 
 D 
I said we're going down to Daddy Gees. 
 G D A D 
Feel so good, now your on, 
 G D E A 
Come on baby, rock me all night long. 
 D 
Come on everybody, 
Gonna have a happy time, 
 G 
Take your shoes off, comb your hair down, 
 D 
I know it's gonna work out fine, 
 A G 
So come on, with me, 
 D 
I said we're going down to Daddy Gees, 
Roll it Daddy. 

What's his name? 
Daddy Gee! 
 D 
Well come on everybody, 
I said we're going down to Daddy Gees, 
 G 
Gonna do, some rock 'n' rolling, 
 D 
Like you ain't never seen, 
 A G 
So come on, with me, 
 D 
I said we're going down to Daddy Gees, 
 A G 
Come on, with me, 
 D 
I said we're going down to Daddy Gees, 
Rock it Daddy...

A Pirate Looks At Forty Tabs – Jimmy Buffett

 A PIRATE LOOKS AT FORTY

As recorded by Jimmy Buffett
(From the 1974 Album A1A)

Words and Music by Jimmy Buffett

 Slowhand


Gtr I (E A D G B E) - 'Steve Goodman - Acoustic Guitar'
Gtr II (E A D G B E) - 'Jimmy Buffett - Acoustic Guitar'


 Intro
  Q=110
  G                                 C/G  G                                 C/G
 4/4
  Gtr I
  E E E E +E  E E E   E E E E +E  E Q    E E E E +E  E E E   E E E E +E  E Q
|-------------------|------------------|-------------------|------------------|
|-----0-------------|-----0---------1--|-----0-------------|-----0---------1--|
|---0---------0-----|---0---------0-0--|---0---------0-----|---0---------0-0--|
|-------0-(0)-----0-|-------0-(0)---2--|-------0-(0)-----0-|-------0-(0)---2--|
|---------------2---|------------------|---------------2---|------------------|
|-3-----------------|-3----------------|-3-----------------|-3----------------|
|
| Gtr II
| E E E E +E  E E E   E E E E +E  E Q    E E E E +E  E E E   E E E E +E  E Q
|---3-3---------3-3-|---3-3------------|---3-3---------3-3-|---3-3------------|
|---0-0---------0-0-|---0-0---------1--|---0-0---------0-0-|---0-0---------1--|
|-0-0-0-0-(0)-0-0-0-|-0-0-0-0-(0)-0-0--|-0-0-0-0-(0)-0-0-0-|-0-0-0-0-(0)-0-0--|
|-0-----0-(0)-0-----|-0-----0-(0)-0-2--|-0-----0-(0)-0-----|-0-----0-(0)-0-2--|
|-2-----2-(2)-2-----|-2-----2-(2)-2----|-2-----2-(2)-2-----|-2-----2-(2)-2----|
|-3-----------3-----|-3-----------3-3--|-3-----------3-----|-3-----------3-3--|


  E E E E +E  E E E   E E E E +E  E Q    E E E E +E  E E E   E E E E +E  E Q
|-------------------|------------------|-------------------|------------------||
|-----0-------------|-----0---------1--|-----0-------------|-----0---------1--||
|---0---------0-----|---0---------0-0--|---0---------0-----|---0---------0-0--||
|-------0-(0)-----0-|-------0-(0)---2--|-------0-(0)-----0-|-------0-(0)---2--||
|---------------2---|------------------|---------------2---|------------------||
|-3-----------------|-3----------------|-3-----------------|-3----------------||
|
| E E E E +E  E E E   E E E E +E  E Q    E E E E +E  E E E   E E E E +E  E Q
|---3-3---------3-3-|---3-3------------|---3-3---------3-3-|---3-3------------||
|---0-0---------0-0-|---0-0---------1--|---0-0---------0-0-|---0-0---------1--||
|-0-0-0-0-(0)-0-0-0-|-0-0-0-0-(0)-0-0--|-0-0-0-0-(0)-0-0-0-|-0-0-0-0-(0)-0-0--||
|-0-----0-(0)-0-----|-0-----0-(0)-0-2--|-0-----0-(0)-0-----|-0-----0-(0)-0-2--||
|-2-----2-(2)-2-----|-2-----2-(2)-2-3--|-2-----2-(2)-2-----|-2-----2-(2)-2-3--||
|-3-----------3-----|-3-----------3----|-3-----------3-----|-3-----------3----||


   1st b- 8th Verses
    G
    E E E E +E  E +E  E    E  E E E +E  E E E
||----------------------|---------------------|
||o---------------------|---------------0-----|
||------0-2-(2)-0-(0)---|-------0-2-(2)---0---|
||----0---------------0-|-----0-------------0-|
||o---------------------|---------------------|
||--3-------------------|--3------------------|
|
|   Q   E E  Q     E  E   +E  Q   E  E  E E E
||----------------------|---------------------|
||o-0---0-0--0-----0--1-|-(1)-3---3--3--3-3-3-|
||--0---0-0--0-----0--2-|-(2)-4---4--4--4-4-4-|
||--0---0-0--0-----0--0-|-(0)-0---0--0--0-0-0-|
||o-2-------------------|---------------------|
||--3-------------------|---------------------|


  E E E E +E  E +E  E    E  E E E +E  E  Q
|---------------------|----------------------|
|---------------------|---------------0------|
|-----0-2-(2)-0-(0)---|-------0-2-(2)----0---|
|---0---------------0-|-----0----------------|
|---------------------|----------------------|
|-3-------------------|--3-------------------|
|
| Q   E E  Q     E  E   +Q    E E  E  Q.
|---------------------|----------------------|
|-0---0-0--0-----1--3-|-(3)---3-1-----0------|
|-0---0-0--0-----2--4-|-(4)---4-2-----0------|
|-0---0-0--0-----0--0-|-(0)---0-0-----0------|
|-2-------------------|----------------------|
|-3-------------------|----------------------|


  C
  E E E E +E  E +