Tag: avenue

Kisah Antara Kita piano chords by One Avenue Band

G C G Cm

G
Mengapa terjadi
Em
oh pada diri ini
Am
Haruskah ku
D
meneruskan lagi
Bm Dm
Kisah kita yang
E
telah kita bina bersama
Am D
Kini tlah hancur karena
Eb C
Kau memilih dia

G
Ku tidak menyangkakan
Em
Engkau seperti ini
Am
Kau curangi diriku
D
Tanpa aku sedari
Bm
Bodohnya aku ku bisa
E
Mempercayakan kamu
Am
Tanpa ku sedari
D
Kau mempermainkan
G
cintaku

C
Sayang
Haruskah kau
D
memperlakukan aku
Bm
Sebegini
E
Apakah salah diri ku ini
Am
Terhadapmu sehingga
D
engkau sanggup
G
menduakan cintaku

C
Mungkin aku bukan
D
yang terbaik buatmu
Bm
Kuterima apa yang kau
E
lakukan padaku
Am
Ku kesali dan berasa
D G
kecewa terhadap dirimu

Eb Ab Bb G
Cm Am Ab Bb Eb Eb

Ab
Maafkan aku telah
Bb
mengecewakanmu
Gm
Hati ini tak dapat
C
merubahkan apapun
Fm
Diri ini telah
Bb Eb
dimiliki tanpa ku sedari

Db
Mungkin aku bukan
Eb
yang terbaik buatmu
Cm
Kuterima apa yang kau
F
lakukan padaku
Bbm
Ku kesali dan berasa
Eb Ab
kecewa terhadap dirimu

Ab
Ku amat menyesali
Fm
Mengenali dirimu
Bbm Eb
Ku janji akan meneruskan
Db
Hidupku tanpa mu...

Ab

Kung Di Rin Lang Ikaw chords by December Avenue feat. Moira Dela Torre

[Verse 1]
       E                     G#m
Kung hindi rin lang ikaw ang dahilan
    Amaj7                    B
Pipilitin ba ang puso kong hindi na masaktan?
       E           G#m
Kung hindi ikaw ay hindi na lang
    Amaj7                    B
Pipilitin pang umasa para sating dalawa

[Pre-Chorus]
  Amaj7           B
Giniginaw at hindi makagalaw
      G#m                  A   -    B         E
Nahihirapan ang pusong pinipilit ay ikaw

[Chorus]
            G#m
Kung di rin tayo sa huli
   A                    B               E
Aawatin ang sarili na umibig pang muli
            G#m
Kung di rin tayo sa huli
   A                       B
Aawatin ba ang puso kong ibigin ka?

[Instrumental]
E G#m A B

[Verse 2]
     E                       G#m
Kung hindi rin lang ikaw ang dahilan
     Amaj7                      B
Pipiliin bang umiwas ng hindi na masaktan?
       E            G#m
Kung hindi ikaw ay sino pa ba?
       Amaj7               B
Ang luluha sa umaga para sating dalawa

[Pre-Chorus]
  Amaj7           B
Bumibitaw dahil di makagalaw
      G#m                  A   -    B           E
Pinipigilan ba ang puso mong iba ang sinisigaw?

[Chorus]
            G#m
Kung di rin tayo sa huli
   A                    B               E
Aawatin ang sarili na umibig pang muli
            G#m
Kung di rin tayo sa huli
   A                       B
Aawatin ba ang puso kong ibigin ka?

[Bridge]
  Amaj7          B
Naliligaw at malayo ang tanaw
      G#m                     A    -    B
Pinipigilan na ang pusong pinipilit ay ikaw

[Instrumental]
E G#m A B     E

[Chorus]
            G#m
Kung di rin tayo sa huli
   A                    B               E
Aawatin ang sarili na umibig pang muli
            G#m
Kung di rin tayo sa huli
   A                       B            E
Aawatin ba ang puso kong ibigin ka?
     G#m
Kaya bang umibig ng iba?
    A                      B            E
(Aawatin ba ang puso kong ibigin ka?)
     G#m
Papayagan ba ng puso kong ibigin ka?
    A                      B
(Aawatin ba ang puso kong ibigin ka?)

[Outro]
Amaj7 F#m Amaj7 F#m

Kisah Antara Kita chords by One Avenue Band

G C G Cm

G
Mengapa terjadi
Em
oh pada diri ini
Am
Haruskah ku
D
meneruskan lagi
Bm Dm
Kisah kita yang
E
telah kita bina bersama
Am D
Kini tlah hancur karena
Eb C
Kau memilih dia

G
Ku tidak menyangkakan
Em
Engkau seperti ini
Am
Kau curangi diriku
D
Tanpa aku sedari
Bm
Bodohnya aku ku bisa
E
Mempercayakan kamu
Am
Tanpa ku sedari
D
Kau mempermainkan
G
cintaku

C
Sayang
Haruskah kau
D
memperlakukan aku
Bm
Sebegini
E
Apakah salah diri ku ini
Am
Terhadapmu sehingga
D
engkau sanggup
G
menduakan cintaku

C
Mungkin aku bukan
D
yang terbaik buatmu
Bm
Kuterima apa yang kau
E
lakukan padaku
Am
Ku kesali dan berasa
D G
kecewa terhadap dirimu

Eb Ab Bb G
Cm Am Ab Bb Eb Eb

Ab
Maafkan aku telah
Bb
mengecewakanmu
Gm
Hati ini tak dapat
C
merubahkan apapun
Fm
Diri ini telah
Bb Eb
dimiliki tanpa ku sedari

Db
Mungkin aku bukan
Eb
yang terbaik buatmu
Cm
Kuterima apa yang kau
F
lakukan padaku
Bbm
Ku kesali dan berasa
Eb Ab
kecewa terhadap dirimu

Ab
Ku amat menyesali
Fm
Mengenali dirimu
Bbm Eb
Ku janji akan meneruskan
Db
Hidupku tanpa mu...

Ab

The Scientist chords – Boyce Avenue

 Capo 1


Intro:     Em C G D Em C G 
Verse:     come up to meet you, tell you i'm sorry, you don't know how lovely you are
           Em C G 
           i had to find you, tell you i ne-ed you, tell you i'll set you apart
           Em C G 
           tell me your secrets and ask me your questions, oh lets go back to the start
           Em C G 
           running in circles, coming in ta-les, heads are a science apart



           C G 
Chorus:    nobody said it was easy,   it's such a shame for us to part
           C G D 
           nobody said it was easy,   no-one ever said it would be this hard
           C G 
           oh take me back to the start



Solo:   |  G   |  C   |    G   |   G   |  Bm  |  Em  |


           Em C G 
Verse:     i was just guessing at numbers and f--igures, pulling the puzzles apart
           Em C G  
           questions of science, science and pr-ogress, do not speak as loud as my heart
           Em C G 
           tell me you love me, come back and ha-unt me, oh and i rush to the start
           Em C G             
           running in circles, chasing t--ales, coming back as we are


           C G                  
Chorus:    nobody said it was easy,  oh it's such a shame for us to part
           C G D 
           nobody said it was easy,  no-one ever said it would be so hard
           C G C G 
           i'm going back to the start


Outro:  |:  Em  |  C  |  G  :| 

Demons chords – Boyce Avenue

 no capo  C G Am F . You can use beat tap skill 
           C 
When the days are cold
          G              
And the cards all fold
           Am 
And the saints we see
          F 
Are all made of gold

When your dreams all fail
And the ones we hail
Are the worst of all
And the blood’s run stale

I wanna hide the truth
I wanna shelter you
But with the beast inside
There’s nowhere we can hide

No matter what we breed
We still are made of greed
This is my kingdom come
This is my kingdom come

When you feel my heat
Look into my eyes
It’s where my demons hide
It’s where my demons hide
Don’t get too close
It’s dark inside
It’s where my demons hide
It’s where my demons hide

At the curtain’s call
It's the last of all
When the lights fade out
All the sinners crawl

So they dug your grave
And the masquerade
Will come calling out
At the mess you made

Don't wanna let you down
But I am hell bound
Though this is all for you
Don't wanna hide the truth

No matter what we breed
We still are made of greed
This is my kingdom come
This is my kingdom come

When you feel my heat
Look into my eyes
It’s where my demons hide
It’s where my demons hide
Don’t get too close
It’s dark inside
It’s where my demons hide
It’s where my demons hide

They say it's what you make
I say it's up to fate
It's woven in my soul
I need to let you go

Your eyes, they shine so bright
I wanna save that light
I can't escape this now
Unless you show me how

When you feel my heat
Look into my eyes
It’s where my demons hide
It’s where my demons hide
Don’t get too close
It’s dark inside
It’s where my demons hide
It’s where my demons hide

A Sky Full Of Stars Tabs – Boyce Avenue

 ------------------------------------------------------------------------------------
                        Boyce Avenue - A Sky Full Of Stars
------------------------------------------------------------------------------------

Intro:

d|-0---0---0-----0-0---0---0---0-----0---0-0---0---0-----0---0-0---0---0-----0-0---|
A|-0---0---0-----0-0---0---0---0-----0---0-0---0---0-----0---0-0---0---0-----0-0---|
F|-0---0---0-----0-0---4---4---4-----4---4-4---4---4-----4---4-2---2---2-----2-2---|
C|-9---9---9-----9-9---5---5---5-----5---5-5---5---5-----5---5-4---4---4-----4-4---|
G|-7---7---7-----7-7---3---3---3-----3---3-x---x---x-----x---x-2---2---2-----2-2---|
D|-0---0---0-----0-0-----------------------3---3---3-----3---3---------------------|
 |                                                                                 |
d|---------------------------------------------------------------------------------|
A|---------------------------------------------------------------------------------|
F|---------------------------------------------------------------------------------|
C|-9---------------10--12-------------------------------10\9-7---------------------|
G|---------------------------------------------------------------------------------|
D|---------------------------------------------------------------------------------|


d|-0---0---0-----0-0---0---0---0-----0---0-0---0---0-----0---0-0-------------------|
A|-0---0---0-----0-0---0---0---0-----0---0-0---0---0-----0---0-0-------------------|
F|-0---0---0-----0-0---4---4---4-----4---4-4---4---4-----4---4-2-------------------|
C|-9---9---9-----9-9---5---5---5-----5---5-5---5---5-----5---5-4-------------------|
G|-7---7---7-----7-7---3---3---3-----3---3-x---x---x-----x---x-2-------------------|
D|-0---0---0-----0-0-----------------------3---3---3-----3---3---------------------|
 |                                                                                 |
d|---------------------------------------------------------------------------------|
A|---------------------------------------------------------------------------------|
F|---------------------------------------------------------------------------------|
C|-9---------------10--12-------------------------------10\9-7---------------------|
G|---------------------------------------------------------------------------------|
D|---------------------------------------------------------------------------------|


Verse 1:

d|---------------------------------------------------------------------------------|
A|---------3-------------------3---------------------------------------------------|
F|-----0-------------------0-----------------------4-------------------2-----------| x4
C|---------------------------------------------5-------------------4---------------|
G|---------------------3---------------------------------------2-------------------|
D|-0---------------------------------------3---------------------------------------|


Chorus 1:

d|---------------------------------------------------------------------------------|
A|---------3-------------------3---------------------------------------------------|
F|-----0---------0---------0-----------------------4-------------------2-----------|
C|---------------------------------------------5---------5---------4---------------|
G|---------------------3---------------------------------------2-------------------|
D|-0---------------------------------------3---------------------------------------\
 |                                                                                 x2
d|---------------------------------------------------------------------------------/
A|-12------------------15------------------12------------------15--------13--------|
F|---------------------------------------------------------------------------------|
C|---------------------------------------------------------------------------------|
G|------------------------------------------------------------------

Happiness chords – Sunrise Avenue

 Verse 1:
 D G 
I’ve been running far away from love
            A 
I’ve been trying to rise above
 D G 
Thought I’d be cooler with no one
        A F#m 
And I thought it would be easy
 Bm E 
  I thought it’s easy

 D G 
There was not a warning sign on you
             A 
There was nothing I could do
 D G 
You opened all the gates from me
          A F#m 
And you made me see it’s easy
 Bm Em F#m G A 
You just feel the love and sing


Chorus:
 D Em Bm 
Better for worse, to rain or shine
              G 
Now you’re mine, it brings me
 D E 
Happiness happiness happiness
      C G 
You are the one (you bring me happiness)
 D Em Bm 
You call me dear and hold me close
              G 
Give sweet love and it glows
 D E 
Happines happiness happiness
      C G 
You are the one (you bring me happiness)

Verse 2:
 D G 
Lately she’s been dreaming about the one
             A 
About her prince, the golden son
 D G 
  She’s waiting for the perfect match
           A 
But that ain’t quite the catch
      F#m 
It’s easy
 Bm Em F#m A G 
  She should find someone who sings


Chorus:
 D Em Bm 
Better for worse, to rain or shine
              G 
Now you’re mine, it brings me
 D E 
Happiness happiness happiness
      C G 
You are the one (you bring me happiness)
 D Em Bm 
You call me dear and hold me close
              G 
Give sweet love and it glows
 D E 
Happines happiness happiness
      C G 
You are the one (you bring me happiness)


Bridge:
 D G 
Bill and Johnny found a brand new life
           A 
In their bedroom Bill is the wife
 D G 
  They’re holding hands and kissing deep
                 A F#m 
And they don’t need no ladies for them
 Bm 
 It’s so damn easy

 A Em F#m G  (4x)

Chorus:
 D Em Bm 
Better for worse, to rain or shine
              G 
Now you’re mine, it brings me
 D E 
Happiness happiness happiness
      C G 
You are the one (you bring me happiness)
 D Em Bm 
You call me dear and hold me close
              G 
Give sweet love and it glows
 D E 
Happines happiness happiness
      C G 
You are the one (you bring me happiness)

Just The Way You Are Tabs by Boyce Avenue V3

 Title: Just The Way You Are
 Boyce Avenue
: Juhndemar
Tuning: Standard
Capo: 1st fret


INTRO:
e--0------------|------------1----|--0------------|------------1---|
B--------1------|--------1-3------|--------1------|--------1-3-----|
G------0--------|------0----------|------2--------|------2---------|
D----2----------|----2------------|----2----------|----2-----------|
A--3------------|--3--------------|--0------------|--0-------------|
E---------------|-----------------|---------------|----------------|


e--1------------|-----------------|---------------|----------------|
B--------1------|--------1-1-1h3--|--1-----1------|----------------|
G------2--------|------2----------|------0--------|----------------|
D---------------|-----------------|----2----------|----------------|
A----3----------|----3------------|--3------------|--3-------------|
E--1------------|--1--------------|---------------|----------------|

Verse 1
 C
Oh her eyes, her eyes, make the stars look like they're not shining
Am 
Her hair, her hair, falls perfectly without her trying
F                                        C
 She's so beautiful, and I tell her everyday

      C
Yeah, I know, I know when I compliment her she won't believe me
Am
And it's so, it's so sad to think she don't see what I see
F                                             C
 But every time she asks me do I look okay, I say

Chorus 1:

                   C                   Am
When I see your face, there's not a thing that I would change
                F                      C
Cause you're amazing, just the way you are
               C                      Am
And when you smile, the whole world stops and stares for awhile
                    F                        C
Cause girl you're amazing, just the way you are, (yeah)



Verse 2 
C
Her lips, her lips I could kiss them all day if she'd let me
Am
Her laugh, her laugh she hates but I think it's so sexy
F                                      C
She's so beautiful and I tell her everyday,
C    
Oh you know, you know, you know I'd never ask you to change
  Am
If perfect's what you're searching for then just stay the same
  F
So don't even bother asking if you look okay
               C
You know I'll say,

Chorus 2:
                  C                   Am
When I see your face, there's not a thing that I would change
                F                      C
Cause you're amazing, just the way you are
               C                      Am
And when you smile, the whole world stops and stares for awhile
                    F                        C
Cause girl you're amazing, just the way you are
             C                Am                      F
The way you are, the way you are, cause girl you're amazing
                  C
Just the way you are ohh!
             C                Am                      F
The way you are, the way you are, cause girl you're amazing
                  C
Just the way you are.

Outro: (Single Down-strokes)

                   C                   Am
When I see your face, there's not a thing that I would change
                F                      C
Cause you're amazing, just the way you are

(Lightly Strum)
               C                       Am
And when you smile, the whole world stops and stares for awhile
                    F                        C
Cause girl you're amazing, just the way you are






I dedicate this song to my very special friend Fe. ^__^

Lifesaver chords – Sunrise Avenue V6

 Sunrise Avenue  Lifesaver   Capo: 4

DeSemmer
"My first Song"
http://www.youtube.com/user/desemmer


Start: Single Notes on G- und D-String:
 D  =  A - D Bm  =  H - F# G =  G - D A  =  A - E 


Intro:  D  (a-d)   8x

   D            ( A )     Bm   I   G               ( A )         D   I
I find it to hard to win        Back on the ground again 
 D             ( A )     Bm (6)  A (2) G              ( A )        D 
  I feel like giving in        But you're my second wind
           G D Bm D 
Don't you ever tire    Facing all my fires 
            G A 
I don't need     no one but you right now   So, I say

Chorus:
 D    I                  G D 
Oh, my friend, you're holding out your hand
   G D G                   
I take it like an oar from the depth
 D F#m G F#m        
Hey, Lifesaver, I'm drowning in despair
            G D G 
But you're fighting for me right until the end. 
     I                           I             D                       
You pull me back to land   and save me once (again)


      D A Bm   I           G A D   
You help me wash away        The insane mistakes I made 
 D A Bm   I     G A D 
And I see it in your face        My only source of grace
             G D Bm D 
No, I don't take for granted       All the time you've wasted 
        G A 
Making sacrifices for a fool       So, I say


Chorus:


  Bm G D 
(You lift me higher)    You hold the fire
 Bm A G A A  I I I
Made up stand tall   But without you I'd fall 


Chorus:


 D G D G D A D 
ohohoh Oh    ohohoh oh oh    ohohoh    oh oh    Oh

Lifesaver Acoustic Tabs by Sunrise Avenue

 Song: Lifesaver
 Unholy Ground
Artist: Sunrise Avenue

half-step down tuning! :)



Eb|------------------|------------------|------------------|------------------|------------------|
Bb|-3---3---3---3----|-3---3---3---3----|-5---5---5---5----|-5---5---5---5----|-1---1---1---1----|
Gb|---0---0---0---0--|---0---0---0---0--|---0---0---0---0--|---0---0---0---0--|---0---0---0---0--|
Db|------------------|------------------|------------------|------------------|------------------|
Ab|------------------|------------------|------------------|------------------|------------------|
Eb|------------------|------------------|------------------|------------------|------------------|


                                                                                                
Eb|------------------|------------------|------------------|------------------|------------------|
Bb|-1---1---1---1----|-3---3---3---3----|-3---3---3---3----|-5---5---5---5----|-5---5---3---3----|
Gb|---0---0---0---0--|---0---0---0---0--|---0---0---0---0--|---0---0---0---0--|---0---0---0---0--|
Db|------------------|------------------|------------------|------------------|------------------|
Ab|------------------|------------------|------------------|------------------|------------------|
Eb|------------------|------------------|------------------|------------------|------------------|


                                                                                                
Eb|------------------|------------------|-7---7---7---7----|-7---7---5---5----|-3---3---3---3----|
Bb|-1---1---1---1----|-1---1---1---1----|-8---8---8---8----|-8---8---7---7----|-5---5---5---5----|
Gb|---0---0---0---0--|---0---0---0---0--|---7---7---7------|---7---7---7---7--|---0---0---0---0--|
Db|------------------|------------------|------------------|------------------|------------------|
Ab|------------------|------------------|------------------|------------------|------------------|
Eb|------------------|------------------|------------------|------------------|------------------|


                                                                                                
Eb|-3---3---2---2----|------------------|------------------|-------3-2-0------|------------------|
Bb|-5---5---3---3----|-1---1---1---1----|-1---1---1---1----|-3---3-------0-1--|-1-3--------------|
Gb|---0---0---0---0--|---0---0---0---0--|---0---0---0---0--|---0--------------|------------------|
Db|------------------|------------------|------------------|------------------|------------------|
Ab|------------------|------------------|------------------|------------------|------------------|
Eb|------------------|------------------|------------------|------------------|------------------|


                                                                                                
Eb|------------------|------------------|------------------|------------------|------------------|
Bb|-3---3---3---3----|-3---3---3---3----|-1---1---1---1----|-3---3---3---3----|-1---1---1---1----|
Gb|-0-0---0---0---0--|-0-0---0---0---0--|-0-0---0---0---0--|-0-0---0---0---0--|-0-0---0---0---0--|
Db|-0----------------|-0----------------|-2----------------|-0----------------|-2----------------|
Ab|------------------|------------------|-3----------------|------------------|-3----------------|
Eb|-3----------------|-3----------------|------------------|-3----------------|------------------|


                                                                                                
Eb|---------2--------|------------------|------------------|------------------|------------------|
Bb|-3---3---3---3----|-1---1---1---1----|-1---1---1---1----|-3---3---3---3----|-3-----3-3---3----|
Gb|-0-0---0-2-2---2--|-0-0---0---0---0--|-0-0---0---0---0--|-0-0---0---0---0--|-4-----4-4---4----|
Db|-0-------0--------|-2----------------|-2----------------|-0----------------|-4---

Lifesaver Tabs by Sunrise Avenue

 Song: Lifesaver
 Unholy Ground
Artist: Sunrise Avenue

Capo 1

Intro:

E|-1-3-5--1--1-3-5--1--1-3-5--3--1-|
B|-------1---------1---------1--1--|
G|---------------------------------|
D|---------------------------------|
A|---------------------------------|
E|---------------------------------|




Verse 1:
                   
E|------------------|------------------|------------------|
B|-----6-------6----|-----6-------6----|-----6-------6----|
G|---5---5---5---5--|---5---5---5---5--|---5---5---5---5--|
D|------------------|------------------|-7-------7--------|
A|-8-------8--------|-8-------8--------|------------------|
E|------------------|------------------|------------------|


E|------------------|------------------|
B|-----6-------6----|-----6-------6----|
G|---5---5---5---5--|---5---5---5---5--|
D|-8-------8--------|------------------|
A|------------------|-8-------8--------|
E|------------------|------------------| 2x
           F    C
Don't you ever tire
       Dm     C
Facing all my fires

        Bb      Dm                 C  
I don't need no one but you right now


So, I say


Chorus:
F        Am            Bb               F                           
Oh, my friend, you're holding out your hand

   Bb               F   C        Bb                          
I take it like an oar from the depth

F         Am          Bb           F
Hey, Lifesaver, I'm drowning in despair

             Bb             F      C        Bb
But you're fighting for me right until the end.

      F       C       Bb      F
You pull me back to land and save me once again

E|-1-3-5--1---1-3-5--1---1-3-5--3--1-|
B|-------1--1-------1--1-------1--1--|
G|-----------------------------------|
D|-----------------------------------|
A|-----------------------------------|
E|-----------------------------------|


Verse 2:

E|------------------|------------------|------------------|
B|-----6-------6----|-----6-------6----|-----6-------6----|
G|---5---5---5---5--|---5---5---5---5--|---5---5---5---5--|
D|------------------|------------------|-7-------7--------|
A|-8-------8--------|-8-------8--------|------------------|
E|------------------|------------------|------------------|


E|------------------|------------------|
B|-----6-------6----|-----6-------6----|
G|---5---5---5---5--|---5---5---5---5--|
D|-8-------8--------|------------------|
A|------------------|-8-------8--------|
E|------------------|------------------| 2x

              F        C
No, I don't take for granted
         Dm          C
All the time you've wasted
        Bb   Dm          C   
Making sacrifices for a fool
So, I say


Chorus:
F        Am            Bb               F                           
Oh, my friend, you're holding out your hand

   Bb               F   C        Bb                          
I take it like an oar from the depth

F         Am          Bb           F
Hey, Lifesaver, I'm drowning in despair

             Bb             F      C        Bb
But you're fighting for me right until the end.

      F       C       Bb      F
You pull me back to land and save me once again


F           Am  
You lift me higher,
Bb            F    
You hold the fire,
Bb           F      C         Bb
You make me strong enough to stay
F           Am
You lift me higher,
Bb           F
You hold the fire,
Bb            C
Made up stand tall
        Dm           C
But without you I'd fall


Chorus:
F        Am            Bb               F                           
Oh, my friend, you're holding out your hand

   Bb               F   C        Bb                          
I take it like an oar from the depth

F         Am          Bb           F
Hey, Lifesaver, I'm drowning in despair

             Bb             F      C        Bb
But you're fighting for me right until the end.

      F       C       Bb      F
You pull me back to land an

Payphone solo Tabs by Boyce Avenue

 -------------------------------------------------------------------------------
                             PAYPHONE - Boyce Avenue
-------------------------------------------------------------------------------
: arcsi007
 arcsi95@hotmail.com

Tuning: Standard

. For timing watch video: http://youtu.be/9lejDw3dtsw?t=2m37s

e|----10---------------------------------------------------------------------|
B|----------------13--12--12s10--10--8-----8~--------------------------------|
G|------------12------------------------9---------9s7------------------------|
D|---------------------------------------------9-----------------------------|
A|---------------------------------------------------------------------------|
E|---------------------------------------------------------------------------|

e|---------------------------------------------------------------------------|
B|------------------15--15-15-14---10--10-10-8-7--7-7-7----------------------|
G|-----------12h14---------------------------------------8s10-(-10-10s-)-----|
D|----12h14------------------------------------------------------------------|
A|---------------------------------------------------------------------------|
E|---------------------------------------------------------------------------|


************************************

| /   slide up
| \   slide down
| h   hammer-on
| p   pull-off
| ~   vibrato
| +   harmonic
| x   Mute note
| b   Bend
| pb  Pre-bend
| br  Bend release
| pbr Pre-bend release
| brb Bend release bend

************************************

Empty My Hands chords – Tenth Avenue North V2

         Play "Empty My Hands"   
These are just basic chords for playing this great song!
Enjoy.
(Capo 5) 
"Verse 1" (finger picked)

 Em C G D 
I've got voices in my head and they are so strong
 Em C G D 
And I'm getting sick of this oh Lord, how long
 Em C G D Em  
Will I be haunted by the fear that I believe
                C .        G 
My hands like locks on cages
          D 
Of these dreams I can't set free

"Pre Chorus"

 Em .       C .                 G .     D  
But if I let these dreams die
 Em .    C .              Em .      D 
If I lay down all my wounded pride
 Em .   C .                G .    D  
If I let these dreams die
        Em .         C .         G .            D 
Will I find that letting go lets me come alive

"Chorus"
    G 
So empty my hands
 C 
Fill up my heart
 G .                    D 
Capture my mind with you

 With you.          Em ,  C ,  G ,  D  


"Verse 2" (same chords)

These voices speak instead and what's right is wrong
And I'm giving into them, please Lord, how long
Will I be held captive by the lies that I believe
My heart's in constant chaos and it keeps me so deceived

"Pre chorus"

But if I let these dreams die
If I could just lay down my dark desire
If I let these dreams die
Will I find you brought me back to life

"Chorus"

So empty my hands
Fill up my heart
Capture my mind with you

"Bridge"
           C .              G .                D 
'Cause my mind is like a building burning down
 C .                     G .        Em .               D 
I need your grace to keep me, keep me from the ground
         C .              G .           D  
And my heart is just a prisoner of war
 C .                  G .            Em .                D 
A slave to what it wants and to what I'm fighting for

"Chorus"  G ,  C ,  G ,  D 

So won't you empty my hands
Fill up my heart
Capture my mind with you

Empty my hands
Fill up my heart
Capture my mind with you

With you         Em ,  C ,  G ,  D  
I need you now

Kiss N Run chords – Sunrise Avenue

 Song: Kiss 'N' Run
 Popgasm
Artist: Sunrise Avenue

Chords are use as powerchords!

Intro:

 D C# E C#  (4x)

 D C# E C# D 
Feels like the world has let me down
 D E F# E D 
Feels as if I'm ready to drown
 D C# E C# D 
It's 3 a.m., I lie awake
 D E F# E D 
Thinking about my great escape

 D C# E C# D 
I'm fine with all that I have left
 D E F# E D 
I try to breathe and just forget
 D C# E C# D 
I'm flying low because of you
 D E F# E D ___ B 
My every thought leads back to you

 B C G A B 
  I'm not made to kiss and run
           D G 
Say, I'm not the only one
          A B 
Getting over you in a weekend
 G A B 
If on Monday I'll be fine
           D G 
Why can't I sleep tight tonight
           A B 
And just walk away and leave her
G                A               D C# E C# (← that's like the intro)
'Cause I'm not made to kiss and run

 D C# E C# D 
I'm pacing all over this place
 D E F# D 
Tracing the steps we failed to take
 D C# E C# D 
I miss you so inside my head
 D E F# E D 
Have to remember to forget

 D C# E C# D 
It's just those eyes that kill me now
 D E F# 
Intensity still stings my eyes
 D C# E C# D 
I wanna keep this hurting too
 D E F# E D ___ B 
If it's the last touch I had from you

 B C G A B 
  I'm not made to kiss and run
           D G 
Say, I'm not the only one
          A B 
Getting over you in a weekend
 G A B 
If on Monday I'll be fine
           D G 
Why can't I sleep tight tonight
           A B 
And just walk away and leave her
 G A D  
'Cause I'm not made to kiss and run

 D C# E C# D 
I'm fine with all that I have left
 D E F# E D 
I'm trying to live with it every day
 D C# E C# D 
I'm not made to kiss and run

 G A B 
  I'm not made to kiss and run
           D G 
Say, I'm not the only one
          A B 
Getting over you in a weekend
 G A B 
If on Monday I'll be fine
           D G 
Why can't I sleep tight tonight
           A B 
And just walk away and leave her
 G A D C

Something Sweet chords – Sunrise Avenue

 Song: Something Sweet
Artist: Sunrise Avenue
 Popgasm

Intro:
 E B Dbm A   (4x)

 E B 
Come to me close to me
 Dbm A 
Park here beside me 
 E B Dbm A 
Come to me leave the rest far behind
 F# 
Give me a moment
    A 
I need to say something 
 F# 
Give me a moment 
    A B 
I need to say something sweet

 E B Dbm A  (2x)

 E B Dbm 
Can you feel all the same things
           A  
That I'm feeling 
 E B Dbm A 
We are so ready to share all this 
 F# 
Give us a moment 
      A 
We need to do something 
 E 
Give us a moment 
      A B 
We need to do something sweet.

 E B Dbm A  (2x)
 
 B A 
  I have all I need
 E 
I want nothing more 
 B A E 
  Far beyond from them, here with you 
 Abm Dbm  
Would you stay
 A E B Dbm A 
Blow the world away 

 B A 
 This is all I want 
 E 
All I ever had 
 B A E 
 You and I right here a little more 
 Abm Dbm   
Here we'll stay 
 A E B Dbm A 
Something sweet is on the way 

 E B Dbm A E B Dbm A 
Beautiful, Powerful, feeling so strong 
      E B 
The stars close their eyes 
             Dbm A 
They don't need to see
 F# 
You are the reason 
      A 
My whole inspiration 
 F# 
You are the reason 
        A B 
We're making something sweet 

 E B Dbm A  (2x)

 B A 
  I have all I need
 E 
I want nothing more 
 B A E 
  Far beyond from them, here with you 
 Abm Dbm  
Would you stay
 A E B Dbm A 
Blow the world away 

 B A 
 This is all I want 
 E 
All I ever had 
 B A E 
 You and I right here a little more 
 Abm Dbm   
Here we'll stay 
 A E B Dbm A 
Something sweet is on the way 

 E B Dbm A B A 
  I have all I need
 E 
I want nothing more 
 B A E 
  Far beyond from them, here with you 
 Abm Dbm  
Would you stay
 A E B Dbm A 
Blow the world away 

 B A 
 This is all I want 
 E 
All I ever had 
 B A E 
 You and I right here a little more 
 Abm Dbm   
Here we'll stay 
 A E B Dbm A 
Something sweet is on the way 

 E B Dbm A  ('til the end) :)

Honeymoon Avenue chords – Ariana Grande V6

 Intro:

(Violin)  F#  ,  E  ,  B  ,  D 
(Background singers)  F#  ,  E  ,  B  ,  D  -->  E  (play the E immediately after)

Verse:

 F# E 
 I looked in my rear view mirror and,
                             B 
 it seem to make a lot more sense...
                   D E 
 than what I see ahead of us, ahead of us, ye - ah.
 F# E 
 I'm ready to make that turn,
                           B 
 before we both crash and burn...
                          D E 
 Cause that could be the death of us, the death of us.

Pre-Chorus:

       F# 
 Baby you know how to drive in rain,
      E B 
 and you decided not to make a change...
 
 Stuck in the same old lane,
  D E 
 Goin' the wrong way home.

Chorus:

                 F# 
 I feel like my heart is stuck in bumper to bumper,
  E 
 traffic, I'm under pressure
                 B 
 'cause I can't have you the way that I want,
                D E 
 let's just go back to the way it was...

                  F# 
 When we were on Honeymoon Avenue,
  E 
 Honeymoon Avenue,
   B 
 baby, coastin' like crazy,
             D E 
 can we get back to the way it was?

Verse:

 F# E  
 Hey, what happened to the butterflies?
                                       B 
 Guess they didn't count at that stop sign...
                       D E 
 and my heart is at a yellow light, a yellow light.
 F# E 
 Hey, right when I think that we found it,
                                    B 
 well that's when we stop turnin' around...

 You sayin' "Baby don't worry,"
      D E 
 but we're still goin' the wrong way.

Pre-Chorus:

       F# 
 Baby you know how to drive in rain,
      E B 
 and you decided not to make a change...
 
 Stuck in the same old lane,
  D E 
 Goin' the wrong way home.

Chorus:

                 F# 
 I feel like my heart is stuck in bumper to bumper,
  E 
 traffic, I'm under pressure
                 B 
 'cause I can't have you the way that I want,
                D E 
 let's just go back to the way it was...

                  F# 
 When we were on Honeymoon Avenue,
  E 
 Honeymoon Avenue,
   B 
 baby, coastin' like crazy,
             D E 
 can we get back to the way it was?

Bridge:


 Ebm                            D#mM7
 They say, only fools fall in love,
                                         B 
 well they must have been talkin' about us,
                                               Ab 
 'cause sometimes I feel like I've been here before...
              B 
 I could be wrong, but I know that I'm right...
              Bbm 
 We 'gon get lost if we continue to fight,
          B 
 Honey I know... yeah,
                       Db 
 we 'gon find our way home.

Chorus:

                 F# 
 I feel like my heart is stuck in bumper to bumper,
  E 
 traffic, I'm under pressure
                 B 
 'cause I can't have you the way that I want,
                D E 
 let's just go back to the way it was...

                  F# 
 When we were on Honeymoo

Will You Be There chords – Boyce Avenue V3

 This is played on piano by alejandro, however the chords given here are in key 
with the song, and guitar does feature in the song playing them, its perfect i think..

 C ,  Am7 ,  F ,  Am ,  G ... First few verses played with these chords..

 D ,  Fm ,  G ,  Bm ,  A ... Then it goes up, (could play F#m also)

 E ,  Gm ,  A ,  Cm ,  B ... And up again (G#m as well)

Youll hear the change in key as the song goes along, easy to figure out

Pre Chorus, the ''everyones takin control of me..'' bit

 Am ,  F ,  G 

The very end of the song. ''yea i will be there!x2'' E, Cm, B

Please rate=] Cheers

Just changed the above tabs to sound more like the original, every props to the above

Lyrics below

Hold Me
Like The River Jordan
And I Will Then Say To Thee
You Are My Friend

Carry Me
Like You Are My Brother
Love Me Like A Mother
Will You Be There?

Weary
Tell Me Will You Hold Me
When Wrong, Will You Scold Me
When Lost Will You Find Me?

But They Told Me
A Man Should Be Faithful
And Walk When Not Able
And Fight Till The End
But I'm Only Human

Everyone's Taking Control Of Me
Seems That The World's
Got A Role For Me
I'm So Confused
Will You Show To Me
You'll Be There For Me
And Care Enough To Bear Me

Hold Me (Show Me)
Lay Your Head Lowly (Show Me Yeah)
Softly Then Boldly (Yeah)
Carry Me There (I'm Only Human)

Lead Me (Hold Me Yeah)
Love Me And Feed Me (Love Me Yeah)
Kiss Me And Free Me (Yeah)
I Will Feel Blessed (I'm Only Human)

Carry (Carry Yeah)
Carry Me Boldly (Carry Yeah)
Lift Me Up Slowly (Yeah)
Carry Me There (I'm Only Human)

Save Me (Need Me Yeah)
Heal Me And Bathe Me (Lift Me Up, Life Me Up)
Softly You Say To Me
I Will Be There (I Will Be There)

Lift Me (Hold Me)
Lift Me Up Slowly
Carry Me Boldly (Yeah)
Show Me You Care (I Will Be There)

Hold Me
Lay Your Head Lowly (I Get Lonely Sometimes, I Get Lonely, Yea Yeah)
Softly Then Boldly
Carry Me There (Carry Me There)

Oh I Will Be There
Yeah I Will Be There

Honeymoon Avenue chords – Ariana Grande V5

 Verse 1,2 ; Pre-chorus ; Chorus -- Repeat D Am G Gm
Bridge:  Bm D G E G D Em A 

Verse:
 D Am 
 I looked in my rear view mirror and
                              G 
It seemed to make a lot more sense
                  Gm D 
Than what I see ahead of us, ahead of us, yeah.
                        Am 
I'm ready to make that turn
                          G 
Before we both crash and burn
                         Gm 
Cause that could be the death of us, the death of us, baby


Pre-chorus:
 D 
You know how to drive in rain
     Am G 
And you decided not to make a change

Stuck in the same old lane
  Gm 
Going the wrong way home


Chorus:
                D Am 
I feel like my heart is stuck in bumper to bumper traffic,

I'm under pressure
               G 
Cause I can't have you the way that I want
               Gm 
Let's just go back to the way it was
                 D 
When we were on Honeymoon Avenue
 Am 
Honeymoon Avenue
 G 
Baby, coastin' like crazy
            Gm 
Can we get back to the way it was?


Verse 2:
 D Am 
 Hey, what happened to the butterflies?
                                  G 
Guess they encountered that stop sign
                      Gm 
And my heart is at a yellow light, a yellow light
 D Am 
 Hey, right when I think that we found it,
                                     G 
Well, that's when we start turning around

You're saying, "Baby, don't worry,"
     Gm 
But we're still going the wrong way, baby


Pre-chorus:
 D 
You know how to drive in rain
     Am G 
And you decided not to make a change

Stuck in the same old lane
  Gm 
Going the wrong way home


Chorus:
                D Am 
I feel like my heart is stuck in bumper to bumper traffic,

I'm under pressure
               G 
Cause I can't have you the way that I want
               Gm 
Let's just go back to the way it was
                 D 
When we were on Honeymoon Avenue
 Am 
Honeymoon Avenue
 G 
Baby, coastin' like crazy
            Gm 
Can we get back to the way it was?


Bridge:
 Bm D 
 They say only fools fall in love
                                       G 
Well, they must've been talking about us
                                          E 
and sometimes I feel like I've been here before
            G 
I could be wrong, but I know I'm right
            D 
We gon' be lost if we continue to fight
         Em 
Honey I know, yeah,
                     A 
We can find our way home


Pre-chorus:
 D 
You know how to drive in rain
     Am G 
And you decided not to make a change

Stuck in the same old lane
  Gm 
Going the wrong way home


Chorus:
                D Am 
I feel like my heart is stuck in bumper to bumper traffic,

I'm under pressure
               G 
Cause I can't have you the way that I want
               Gm 
Let's just go back to the way it was
                 D 
When we were on Honeymoon Avenue
 Am 
Honeymoon Avenue
 G 
Baby, coastin' like crazy
            Gm 
Can we get back to the way it was?


You know how to drive in 

Heaven chords – Boyce Avenue V3

 its my first tads' and that's how i learnd it, it is not hard, but there are 2 
anoyying chords. hope you like it!@ :)

 C Am G 
Oh, thinking about all our younger years
          Dm Am 
There was only you and me,
        B6 G 
we were young and wild and free

 C Am G 
Now,nothing can take you a way from me
            Dm Am 
We've been down that road be fore
            B6 G 
But that's over now, you keep me comin' back for more

 F G Am 
Baby you're all that I want
             C F 
When you're lying here in my arms
 Am G C G 
I'm finding it hard to believe we're in heaven
 F G Am 
And love is all that I need
       C F 
And I found it here in your heart
 Am G C G 
It isn't too hard to see we're in heaven

 C Am G 
Oh, once in your life you find someone
          Dm Am 
Who will turn your world around
           B6 G 
Bring you up when you're feeling down

 C Am G 
Yeah, nothing could change what you mean to me
            Dm Am 
Oh there's lots that I could say
          B6 G 
But just hold me now, 'cause our love will light the way

 F G Am 
Baby you're all that I want
             C F 
When you're lying here in my arms
 Am G C G 
I'm finding it hard to believe we're in heaven
 F G Am 
And love is all that I need
       C F 
And I found it here in your heart
 Am G C G 
It isn't too hard to see we're in heaven

 Dm                        
I've been waiting for so long
 F   
For something to arrive
 C G C (ONLY 2 STRAMING)
For love to come along
 Dm                         
Now our dreams are coming true
 F                   
Through the good times and the bad
 C G          
Yeah, I'll be standing there by you

 F G Am 
Baby you're all that I want
             C F 
When you're lying here in my arms
 Am G C G 
I'm finding it hard to believe we're in heaven
 F G Am 
And love is all that I need
       C F 
And I found it here in your heart
 Am G C G 
It isn't too hard to see we're in heaven

Worn Tabs by Tenth Avenue North

 -------------------------------------------------------------------------------
                             WORN - Tenth Avenue North
-------------------------------------------------------------------------------
:purplia94
imall4jesus@aol.com

Tuning: Standard Capo 6
-----------------------------------------------------------------------------
ORDER                  CHORD PROGRESSIONS
------                --------------------
INTRO                 INTRO & VERSES- C-Em-F-Am-G
VERSE 1
PRE-CHORUS            PRE-CHORUS- C-F-G
CHORUS
VERSE 2               CHORUS- F-C-G-Am-F-C-G
PRE-CHORUS
CHORUS                BRIDGE- F-C-G
BRIDGE
CHORUS
ENDING





INTRO & VERSE
Play through this twice for the intro, 4 times for verse one and 2 times for verse two.

e|------------------------------------------------------------------------------|
B|------------------------------------------------------------------------------|
G|----0-------0-------0-------0-------2-------2-------2-------0-----------------|
D|--2---2---2---2---2---2---2---2---3---3---3---3---2---2---0---0---------------|
A|-3------3---------------------------------------0-----------------------------|
E|----------------0-------0--------1------1----------------3--------------------|

PRE-CHORUS
Play though this twice.

e|------------------------------------------------------------------------------|
B|------------------------------------------------------------------------------|
G|-----0--------0--------2--------2------0-------0-------0-------0--------------|
D|---2---2----2---2----3---3---3---3---0---0---0---0---0---0---0---0------------|
A|-3--------3-------------------------------------------------------------------|
E|------------------1---------1------3-------3-------3------3-------------------|

CHORUS
Play through this twice.

e|---------------------------------------------------------------------------|
B|---------------------------------------------------------------------------|
G|-----2-------2-------0-------0-------0-------0-------2-------2-------2-----|
D|---3---3---3---3---2---2---2---2---0---0---0---0---2---2---2---2---3---3---|
A|-----------------3-------3-----------------------0-------0-----------------|
E|-1-------1-----------------------3-------3-----------------------1---------|

e|----------------------------------------------------------|----------------|
B|----------------------------------------------------------|----------------|
G|-----2-------0-------0-------0-------0-------0-------0----|--2--0--0-------|
D|---3---3---2---2---2---2---0---0---0---0---0---0---0---0--|--3--2--0-------|
A|---------3-------3----------------------------------------|-----3----------|
E|--1----------------------3-------3-------3-------3--------|--1-----3-------|

BRIDGE
Play through this 4 times. On the last "G" (eyes) play as if in the chorus and then 
slide right into the chorus.

e|---------------------------------------------------------------------------|
B|---------------------------------------------------------------------------|
G|--2---------0-------0------------------------------------------------------|
D|--3---------2-------0------------------------------------------------------|
A|------------3-3-3-3--------------------------------------------------------|
E|--1-1-1-1-----------3-3-3-3-3-3-3-3----------------------------------------|

ENDING


e|---------------------------------------------------------------------------|
B|---------------------------------------------------------------------------|
G|-----2-------2-------0-------0-------0-------0-------0-------0-------------|
D|---3---3---3---3---2---2---2---2---0---0---0---0---0---0---0---0-----------|
A|-----------------3-------3-------------------------------------------------|
E|-1-------1-----------------------3-------3-------3-------3-----------------| 
dead......... be..............reborn

e|------