Tag: bad

Bubble Gum Or Bad Karma chords – Adam Carroll

 Adam Carroll - Bubble Gum Or Bad Karma



   G C G 
A couple three bucks for a can of snuff was money poorly spent
 C G D 
Didn't see a girl or a car around so I threw it on the hot cement
        G C G   
Well I parked the car and I went to school when I came back in haste 
             C G D G 
There was a big ol wad of bubble gum that was sitting in its place


Chorus:
     C G D G     
The sticky side of the yin and yang on my shoes cramps my style
      C G A7 D 
Some joker's chomping on a big league chew with a big fat Buddha smile
          G C G 
Counting out my change from the I-ching I can't help but hold a grudge
        C G D G                 
Was it bubble gum or bad karma, let my guru be the judge
        C G D G                 
Was it bubble gum or bad karma, let my guru be the judge


My foot got stuck when I hit the gas and I swerved to miss a skunk
And I ram into a bus load full of ten Tibetan monks
The bus was wrecked, nobody got hurt, but they cussed me really loud
I said I guess this was the first time that y'all broke your silence vow
I said please don't call the cops man and I offered them some wine
We played Chinese checkers and they beat me every time
They stole the car and they grabbed the wine they said you were bound to lose
And I got left on the side of the road with bubble gum on my shoes


Chorus:
     C G D G     
The sticky side of the yin and yang on my shoes cramps my style
      C G A7 D 
Some joker's chomping on a big league chew with a big fat Buddha smile
          G C G 
Counting out my change from the I-ching I can't help but hold a grudge
        C G D G                 
Was it bubble gum or bad karma, let my guru be the judge
        C G D G                 
Was it bubble gum or bad karma, let my guru be the judge


I limped my way back into town and the blues came down on me
Couldn't get back to my humble home cause the monks had took my keys
Sat down on the doormat and I hung my head and wept
Spent the night trying to meditate out on my front porch steps
I think Ho Chi Minh's got herpes but Confucious was really cool
Bubble gum makes you stutter, snuff just makes you drool
Well I might come back as the Dalai Lama or I might come back as a clown
But I hope that things go better in my next time around


Chorus:
     C G D G     
The sticky side of the yin and yang on my shoes cramps my style
      C G A7 D 
Some joker's chomping on a big league chew with a big fat Buddha smile
          G C G 
Counting out my change from the I-ching I can't help but hold a grudge
        C G D G                 
Was it bubble gum or bad karma, let my guru be the judge
        C G D G                 
Was it bubble gum or bad karma, let my guru be the judge


Might come back as the Dalai Lama, Might not come back at all
Might come back as a holy cow grazing in Nepal
Or I might come back as an outlaw rickshaw driver named Omar
I wanna be picking the Hindu blues with Ravi Shankar

Bad Seed chords – Glen Campbell

 C F C F 
Ain't been in Little Rock but two weeks and here I am now

 C F C G7 C 
Packing up and disappearing in-to thin air

 F C 
Girls in Little Rock are cute but I can't make my heart take root

                      F C 
Cause bad seed won't grow just anywhere


        F C F C 
I need lots of sunshine I need lots of raindrops 

               F C 
And I need to breathe the open air

 F C 
I hope to beg your pardon your town just ain't my garden

                F C 
Bad seed won't grow just anywhere


    G7 C 
So honey kiss goodbye to your bad seed

 G7 C 
My love is not the kind that you need

 F C F 
I could stay here with you but I wouldn't play fair

 C F C 
Cause bad seed don't grow just anywhere

                           F C 
And you're looking at the baddest of the bad seed


              F C F 
Next stop is Jacksonville now I don't know but I've got the feeling

 C F C G7 C 
And I might just kinda like it somewhere round there

 F C 
Hear tell there's fertile land white pearly silver sand

                    F C 
And bad seed won't grow just anywhere


        F C F C 
I need lots of sunshine I need lots of raindrops 

               F C 
And I need to breathe the open air

 F C 
I hope to beg your pardon your town just ain't my garden

                F C 
Bad seed won't grow just anywhere


                           F C 
Hmm let me tell you honey I'm the bad seed

Bad Girls Tabs – Peer Günt

 Intro:
                              x3
E||-----------------------------||--------------------|
B||-----------------------------||--------------------|
G||.---------------------------.||--------------------|
D||.------2-----2-----2--------.||-------2-----2------|
A||-----------------------------||--------------------|
E||-0--3-----3-----3-----3-2----||-0--3-----3---------|


Verse:

E||-----------------------------||
B||-----------------------------||
G||.---------------------------.||
D||.------2-----2-----2--------.||
A||-----------------------------||
E||-0--3-----3-----3-----3-2----||


Chorus:

E|------|------||-----------------------------||
B|--3---|------||-----------------------------||
G|--2---|--2---||.---------------------------.||
D|--0---|--2---||.------2-----2-----2--------.||
A|------|--0---||-----------------------------||
E|------|------||-0--3-----3-----3-----3-2----||


Bridge:

E||------|-----|-----|------||
B||------|-----|-----|------||
G||.--4--|-----|--5--|--7--.||
D||.--4--|--5--|--5--|--7--.||
A||---2--|--5--|--3--|--5---||
E||------|--3--|-----|------||

Hole In The Ship chords – Bad Religion

 Hello, this is my first ever tab so I hope i didn't make any mistakes making this. It sounds good on acoustic.
I'm pretty sure most parts are correct or very close.

There is a riff that goes throughout the song you can play it or you can just play Am instead.

riff    -------------------------------------                      ----------------
        -------------------------------------                      ----------------
        -------------------------------------                      ------------0---
        -------2--------2---------2-----3--2-                      --------2-------
        ---0--------0--------0---------------     x3               ----3-----------
        -------------------------------------                      ----------------

Intro
 Am G Dm Am    
riff    C G 

Verse 1
riff                                                                               
Well they said there was nothing to worry about
                                    C G 
And they said there was no reason to shout
riff
But I saw the bulkheads cracking
                       C G 
And for us there's no way out

riff                                                                               
When we started on our journey
                        C G 
No one ever could have foreseen
riff
Our desolate and lonely ending
                           C G 
All I've got is helpless feeling
 F G 
But it doesn't take a genius to see

Chorus
           Am G Dm Am 
There's a hooooooooooooooooooooole   in the ship
             C G Am 
And there's nothing we can do
     C G Am 
Our worst fears have now come true
    C G Am 
A few of us are struggling desperately
               C G Am 
To shoot the albatross of H.M.S. Humanity
 C C/B Am G 
It's time to bail
                        Am    riff   C G 
but I think it's too late


Verse 2
riff
All my cohorts think I'm crackers
                        C G 
They've embroiled the local matters
riff
And despite obvious warning
                        C G 
They won't heed my futile chatter

 F G 
But there's something they outta know


Chorus 2

           Am G Dm Am 
There's a hooooooooooooooooooooole   in the ship
     C G Am 
The end is oh so near
       C G Am 
The others show no interest or fear
       C G Am 
Our nature overwhelms our buoyancy
          C G Am 
Yeah nothing could patch the growing vacuity
 C C/B Am G 
It's time to bail, 
                        Am 
but I think it's too late



Bridge
 Dm Am Dm Am C    
Is it possible we have a social disease that makes us close our eyes in dangerous times
 G Am 
But I'm joining in nicely?
 Dm Am Dm Am C    
Or are we too aware and simply too scared to accept destiny, our mortality 
 G E7  
Our mortality, yeah



Chorus
           Am G Dm Am 
There's a hooooooooooooooooooooole   in the ship
 C G Am 
And there's nothing we can do
 <sp

Bad Kidz chords – Marina And The Diamonds V2

 This tab was based on V1. Most of the chords were spot on, but the placement was messed up by
UG's system of
submission. I fixed some of the odd chords here, and a few lyrical mistakes.

If this is too hard for you, try putting it into the key of C - transpose +4.

 Ab D Gm D 
   We came to an agreement in good health
 Ab D Gm D      
That if no-one would take care of us, we'd be fine by ourselves
        Eb D 
It was time to cut the views
              Gm D Eb - Cm 
Of those who don't deserve our spit
        Eb D 
Why is it that we crave the praise
          Eb D              
From the people who least deserve it?

 Ab D 
   If you gave us a flower
      Gm F Bb 
We'd sit and we'd water it
       Eb D 
But instead we watch you weave your web
          Gm Bb 
And you wait for us to fly into it 

     Eb D 
You act like you're a strong ant
     Gm D Eb - Cm 
We all act like we're weak
     Eb D 
If only you'd quit trying to cripple
      Eb D  
Our dancing feet

(no chords) give and forgive

 Gm 
Bad kids
 Bb 
Bad kids
 F Eb Gm 
Slip through your hands like liquid
 Gm 
Bad kids
 Bb F 
Bad kids
 Gm Cm Eb 
Vanish when you shut your eyelids
               Gm Cm Eb 
Yeah, they'll vanish when you shut your eyelids

 Ab D 
  Thinking of it is painful
       Gm D 
It's better to accept it all
 Ab D 
  Thinking of all the mothers and the daughters
         Gm F 
And the fathers and the sons
         Eb               
Who are waiting for a call
 Bb Gm 
 That says, "I didn't mean it,
    Gm D Eb - Ab 
I love you for who you are.
             Eb D 
Whether you make it in this sick industry or not;
               Eb D 
You'll always be my special star."


He said,
 Bb D Eb 
"If I became a pretty flower
 Bb D Eb 
Would you sit and talk to me?
       Bb D Eb 
Oh my roots, my roots are getting old
          Gm Bb D 
and I'm getting, I'm getting, I'm getting lonely, lonely!"

 Ab D 
I'd play Superman, I'd make you feel safe
    Gm D Eb - Ab 
So why are you disappointed?
      Eb D 
Everything I did for you means nothing (thing, thing, thing,)
            Eb D 
'Cause you turned out to be wicked

 Gm 
Bad kids
 Bb 
Bad kids
 F Eb Gm 
Vanish when you shut your eyelids
 Gm 
Bad kids
 Bb F 
Bad kids
 Gm F Eb 
Slip off your skin like liquid
            Gm Cm Eb    
Yeah, they slip off your skin like liquid

 Gm D Gm 
   I'm the tangled ball of string,
           F Bb 
I'm the criminal, you're the victim
           F Bb 
I am the cat, and you are the mouse
               F Gm</span

Bad Luck Tabs – The Story So Far

 -------------------------------------------------------------------------------
                             Bad Luck - The Story So Far
-------------------------------------------------------------------------------
First tab, let me know how it is.
This is only the rhythm guitar, I don't know the lead. If you want that you can look at 
poppunkguitarcovers on youtube, he tabs all his covers and puts links to them in the descriptions. His tab
helped me with correcting and the parts I couldn't quite figure out(strumming of the bridge), so props to 
him.

TUNING: Half-Step Down     / - slide
                           • - palm mute


Intro:
e|---------------------------------------------------------------------------|
B|---------------------------------------------------------------------------|
G|-------------------2-2-----------------------------------------------------|
D|-5-5---5-5---2-2---2-2-----------------------------------------------------|(x3)
A|-5-5---5-5---2-2---0-0-----------------------------------------------------|
E|-3-3---3-3---0-0-----------------------------------------------------------|

e|---------------------------------------------------------------------------|
B|---------------------------------------------------------------------------|
G|---------------------------------------------------------------------------|
D|-5-5---5-5---2-2---55555---------------------------------------------------|
A|-5-5---5-5---2-2---55555---------------------------------------------------|
E|-3-3---3-3---0-0---33333---------------------------------------------------|
                      • •
Verse 1:
e|---------------------------------------------------------------------------|
B|---------------------------------------------------------------------------|
G|---------------------------------------------------------------------------|
D|-5-5-5-5-5-5-5-5-5-5-5-5-5-5-5-5-5-5-5-5-5-7-7-7---------------------------|(x4)
A|-5-5-5-5-5-5-5-5-5-5-5-5-5-5-5-5-5-5-5-5-5-7-7-7---------------------------|
E|-3-3-3-3-3-3-3-3-3-3-3-3-3-3-3-3-3-3-3-3-3-5-5-5---------------------------|
         • • •       • • •       • • •
e|---------------------------------------------------------------------------|
B|---------------------------------------------------------------------------|
G|---------------------------------------------------------------------------|
D|-4-------4-----------------------------------------------------------------|
A|-2-------1-------4-------7-------------------------------------------------|
E|-----------------2-------5-------------------------------------------------|

Chorus:
e|---------------------------------------------------------------------------|
B|---------------------------------------------------------------------------|
G|---------------------------------------------------------------------------|
D|-5-5-5-5-5-5-5-5-7-7-7-7-7-7-7-7-------------------------------------------|
A|-5-5-5-5-5-5-5-5-5-5-5-5-5-5-5-5-------------------------------------------|
E|-3-3-3-3-3-3-3-3-3-3-3-3-3-3-3-3-------------------------------------------|
                   (if you can't reach the seventh fret and stay on the
                    third fret then you can play D|-7-| it still sounds good)
                                                 A|-7-|
                                                 E|-5-|
e|---------------------------------------------------------------------------|
B|---------------------------------------------------------------------------|
G|---------------------------------------------------------------------------|
D|-4-4-4-4-4-4-4-4-----------------------------------------------------------|
A|-2-2-2-2-1-1-1-1-4-4-4-4-7-7-7-7-------------------------------------------|
E|-----------------2-2-2-2-5-5-5-5-------------------------------------------|

e|---------------------------------------------------------------------------|
B|-----------------------------------------

Bad Reputation chords – Kelly Clarkson

 Bad Reputation by Kelly Clarkson
 Piece By Piece
Track 14
2015


Standard Tuning
Capo on the 3rd fret


Chords:

Csus7:      x32000
C:          x32010
Fsus7:      x02310
F:          x33211 or 133211
Am:         x02210
G:          320003 or 320033
Dm:         xx0231
E7:         020100


   Intro:       Csus7 Fsus7 Csus7 E7 


 Verse:
 C 
 My love's a weapon and I'm knocking 'em dead
           Am 
 I got a heart that's tough as leather

 Get what I want and just forget 'em
 C 
 Well this game you're playin' is a russian roulette
                    Am 
 Just 'cause I'm sweet when we're together doesn't mean I'm yours forever


 Pre-Chorus:
   Csus7 Fsus7 
 I never should have looked into your eyes
     Csus7 E7 
 Now everybody's gonna see how I feel


 Chorus:
           Am Dm F G 
 Don't go ruining, ruining my my bad reputation
           Am Dm F G 
 Don't go telling them, telling them all the plans we've been makin'
         Am Dm 
 'Cause everyone knows that I don't cry
          F G 
 You'll never see stars shining in my eyes
       Am Dm F G 
 Yeah ruining, ruining my my bad reputation

  Am Dm F G       x 2


 Verse:
 C 
 Well I tell 'em tell 'em you're nothing to me
                   Am 
 I tell 'em that you, you're just another

 You're just like any any other
 C 
 Well I try to sell 'em but they ain't buyin' it
             Am 
 Baby they see me start to stutter when they ask if you're my lover


 Pre-Chorus:
     Csus7 Fsus7 
 I'm losing sleep, what's gotten into me
     Csus7 E7 
 I'm usually never this weak baby


 Chorus:
           Am Dm F G 
 Don't go ruining, ruining my my bad reputation
           Am Dm F G 
 Don't go telling them, telling them all the plans we've been makin'
         Am Dm 
 'Cause everyone knows that I don't cry
          F G 
 You'll never see stars shining in my eyes
       Am Dm F G 
 Yeah ruining, ruining my my bad reputation


  Am Dm F G       x 2


 Bridge:
         Am Dm F G 
 I have got to pull myself together but I can't control it
 Am Dm F G 
 My lips they know what they want, everybody knows it
 Am Dm F G 
 Once a girl controlled the world with words that piece the bone
           Am Dm F G 
 Now I'm smiling like a lovesick pup and everybody knows it


 Chorus:
           Am Dm F G 
 Don't go ruining, ruining my my bad reputation
           Am Dm F G 
 Don't go telling them, telling them all the plans we've been makin'
         Am Dm 
 'Cause everyone knows that I don't cry
          F G 
 You'll never see stars shining in my eyes
       Am Dm F G 
 Yeah ruining, ruining my my bad reputation

  Am Dm F G       x 2

         Am Dm 
 'Cause everyone knows that I don't cry
          F G 
 You'l

Forest Whitaker chords – Bad Books V3

 Artist - Bad Books 
Song - Forest Whittaker

Standard Tuning - E, A, D, G, B, and E

No Capo.

 C Em 
You started a fire
 F G 
That was never supposed to burn out
 C Em 
You started a band
 F G 
That was cool for a while, but it turned pretty bland
 C Em 
I started a fight
 F G 
With a neighbour next door and his pesky wife?
 C Em 
You started a job
 F G 
That you hate when you’re sober, and hate even more when you’re not.
 F G C G Am G F  
And I know, you hate me too;
 F G C 
You always say you do.

 C Em 
You moved to Japan
 F G 
Thought a clean bill of health and a camera could show you the plan
 C Em 
I bought a bird
 F G 
That repeats what I say, but, “I’m lonely” is all that he’s heard.
 C Em 
You found a guy
 F G 
That is clearly the opposite of me, with a black motorbike
 C Em 
I dicked around
 F G 
But it’s just like a movie whose picture is off with the sound.

 F G C G Am G F  
And I know, you hate me too.....
 F G C 
You always say you do.

 C Em 
You started to write
 F G 
It was subtle at first, but the danger was clearly inside
 C Em 
I don’t reply 
 F G 
Due to lack of an ego, and laziness, it cuts like a knife
 C Em 
You say that you’re good
 F G 
Had a baby with biker, and named him “Forest Whitaker”
 C Em 
I’m laying low
 F G 
On the probable chance you convince me to give him a home 

 F G C G Am G F  
And I know, you hate me too.............
 F G C 
You always say you do.
 F G C G Am G F  
And I know, you hate me too............
 F G C 
You always say you do.

Bad Blood chords – Taylor Swift

 Bad Blood by Taylor Swift
 1989
Track 8
2014


Standard Tuning
Capo on the 7th fret


Chords:

F:      x33211 or 133211
C:      x32010
G:      320003 or 320033
Am:     x02210

(To play without a capo replace the chords above by C, G, D and Em)


 Intro:
              F C 
 Cause baby now we got bad blood
              G Am 
 You know it used to be mad love
              F C 
 So take a look at what you've done
              G Am 
 Cause baby now we got bad blood, hey!
   F C 
 Now we got problems
                G Am 
 And I don't think we can solve them
               F C 
 You made a really deep cut
            G Am 
 And baby now we got bad blood, hey!


 Verse:
   F C 
 Did you have to do this?
  G Am 
 I was thinking that you could be trusted
   F C G Am 
 Did you have to ruin what was shining now it's all rusted
   F C G Am 
 Did you have to hit me? where I'm weak baby I couldn't breathe
     F C 
 I rubbed it in so deep
   G Am 
 Salt in the wound like you're laughing right at me


 Pre-Chorus:
 F C G Am F 
 Oh, it's so sad to think about the good times
   C G 
 You and I


 Chorus:
              F C 
 Cause baby now we got bad blood
              G Am 
 You know it used to be mad love
              F C 
 So take a look at what you've done
              G Am 
 Cause baby now we got bad blood, hey!
   F C 
 Now we got problems
                G Am 
 And I don't think we can solve them
               F C 
 You made a really deep cut
            G Am 
 And baby now we got bad blood, hey!


 Verse:
   F C 
 Did you think we'd be fine?
    G Am 
 Still got scars on my back from your knife
      F C 
 So don't think it's in the past
    G Am 
 These kind of wounds they last and they last
       F C 
 Now did you think it all through?
  G Am 
 All these things will catch up to you
       F C 
 And time can heal but this won't
      G Am 
 So if you come in my way, just don't


 Pre-Chorus:
 F C G Am F 
 Oh, it's so sad to think about the good times
   C G 
 You and I


 Chorus:
              F C 
 Cause baby now we got bad blood
              G Am 
 You know it used to be mad love
              F C 
 So take a look at what you've done
              G Am 
 Cause baby now we got bad blood, hey!
   F C 
 Now we got problems
                G Am 
 And I don't think we can solve them
               F C 
 You made a really deep cut
            G Am 
 And baby now we got bad blood, hey!


 Bridge:
   F C 
 Band-aids don't fix bullet holes
   G Am 
 You say sorry just for show
          F C G Am 
 If you live like that, you live with ghosts
   F C 
 Band-aids don't fix bullet holes
    G</

Bad Girl Tabs by Avril Lavigne

 Avril Lavigne
Bad Girl feat. Marylin Manson
Avril Lavigne
2013 Epic Records
Submitted by: jeremyunderground41

Key: F

Tuning: Drop D


Intro:

Guitar:
e|------------------------------------|
B|------------------------------------|
G|-7-------7---------10-----------5-5-|
D|-7-0-0-0-7-0-0-0-0-10-0-0-0-5-5-5-5-|
A|-5-0-0-0-5-0-0-0-0--8-0-0-0-5-5-3-3-|
D|---0-0-0---0-0-0-0----0-0-0-5-5-----|

e|---------------------------------|
B|---------------------------------|
G|-7-------7---------------------5-|
D|-7-0-0-0-7-0-0-0-0-5-3-5-6-5-3-5-|
A|-5-0-0-0-5-0-0-0-0-5-3-5-6-5-3-3-|
D|---0-0-0---0-0-0-0-5-3-5-6-5-3---|


Verses:

Bass: Hey Hey I like you to walk all over me
G|------------------------------|
D|------------------------------|
A|-5------5------8----------3-3-| x3
D|---0--0---0--0---0--0-5-5-----|

But I want pretty please please
G|---------------|
D|---------------|
A|-5------5------|
D|---0--0---0--0-|

You know you know you Know I'm-
G|---------------|
D|---------------|
A|-------------3-|
D|-5-3-5-6-5-3---|

Guitar:
e|---------------|
B|---------------|
G|-------------5-|
D|-5-3-5-6-5-3-5-|
A|-5-3-5-6-5-3-3-|
D|-5-3-5-6-5-3---|

Guitar: -crazy, I just want to be your baby
e|-------------------------------|
B|-------------------------------|
G|-7------7------10----------5-5-|
D|-7-0--0-7-0--0-10-0--0-5-5-5-5-|
A|-5-0--0-5-0--0-8--0--0-5-5-3-3-| x3
D|---0--0---0--0----0--0-5-5-----|

-hate me...
e|---------------|
B|---------------|
G|-7------7------|
D|-7-0--0-7-0--0-|
A|-5-0--0-5-0--0-|
D|---0--0---0--0-|

e|---------------|
B|---------------|
G|-------------5-|
D|-5-3-5-6-5-3-5-|
A|-5-3-5-6-5-3-3-|
D|-5-3-5-6-5-3---|

Refrain: Miss me miss me now you wanna miss me
palm mute

Chorus: x2

choke me because I said so
e|-----------------|
B|-----------------|
G|-----------------|
D|-0-0-0-0-0-0-0-0-|
A|-0-0-0-0-0-0-0-0-|
D|-0-0-0-0-0-0-0-0-|

Choke me and feed my ego
e|-----------------|
B|-----------------|
G|-----------------|
D|-3-3-3-3-3-3-3-3-|
A|-3-3-3-3-3-3-3-3-|
D|-3-3-3-3-3-3-3-3-|

I'll be a bad girl don't you know
e|---------------------|
B|---------------------|
G|---------------------|
D|-5-5-5-5-8-8-10-10---|
A|-5-5-5-5-8-8-10-10---|
E|-5-5-5-5-8-8-10-10---|

Don't tell me what to do
e|-----------------------|
B|-----------------------|
G|---------------------5-|
D|-0-0-0-0-5-3-5-6-5-3-5-|
A|-0-0-0-0-5-3-5-6-5-3-3-|
E|-0-0-0-0-5-3-5-6-5-3---|

Miss me miss me now you wanna miss me
palm mute

Post Chorus:
e|---------------|
B|---------------|
G|-7------7------|
D|-7-0--0-7-0--0-|
A|-5-0--0-5-0--0-|
D|---0--0---0--0-|

e|---------------|
B|---------------|
G|-------------5-|
D|-5-3-5-6-5-3-5-|
A|-5-3-5-6-5-3-3-|
D|-5-3-5-6-5-3---|

Bridge:

Bass: I'll be a bad girl...
G|-----------------|
D|-----------------|
A|-5-5-5-5-5-5-5-5-| x4
D|-----------------|

G|-----------------------------------------|
D|-12-12-12-12-10-10-10-10-9-9-9-9-8-8-8-8-|
A|-----------------------------------------| x2
D|-----------------------------------------|

G|---------------------------------|
D|---------------------------------|
A|-5-5-5-5-3-3-3-3-2-2-2-2-1-1-1-1-|
D|---------------------------------|

Need Your Love So Bad Tabs by Fleetwood Mac V2

 -----------------------------------------------------------------
              Need Your Love So Bad-Fleetwood Mac
-----------------------------------------------------------------

 : Aeonoptic   

12/8

Tuning:EADGBe
Intro:             
E|-------------------|--------------------|--------------------------|
B|----10-12b14b13b14~|----10h12---10------|---------10-12----10~-----|
G|-11----------------|-11-------11----11--|----9/11-------11---------|
D|-------------------|--------------------|-12-----------------------|
A|-------------------|--------------------|--------------------------|
E|-------------------|--------------------|--------------------------|

   
E|-------------------------|--------------------|------12b14---------|
B|----10----12b14-12b14-10~|----10-12br14p10~---|12b14---------14pb12| >B|-10-12-|-----10h12---10----12b14-10~---|---7-10-12-13-14\--------|
  G|-------|--11-------11---11-------------|-------------------------|
  D|-------|-------------------------------|-------------------------|
  A|-------|-------------------------------|-------------------------|
  E|-------|-------------------------------|-------------------------|

End:
E|----------------------------|-----13b15-12-----|---------------------------|
B|----12b14-12p10-12b14-12b14-|--10----------10~-|-10----10-13b15-13-10-10---|
G|-11-------------------------|------------------|----11-------------------11|
D|----------------------------|------------------|---------------------------|
A|----------------------------|------------------|---------------------------|
E|----------------------------|------------------|---------------------------|

E|-13b15-12-10------------------|
B|-------------10---------------|
G|-------------------Fade out---|
D|------------------------------|
A|------------------------------|
E|------------------------------|

| /  slide up
| \  slide down
| h  hammer-on
| p  pull-off
| ~  vibrato
| +  harmonic
| x  Mute note

Run With The Pack chords – Bad Company

 READ!
There may be some more 7th's in there than what I put, if they sound good to you, 
use them, if not, don't.



Intro  D7 

Verse
 A7 
You never give me my money,
                        D 
You only give me your sympathy.
 A7 
'Cause I keep on running,
                         D 
There's no way to catch up with me.
 Bm D Bm D     
I'm leaving you, don't make no fuss;
 Bm D Bm A7            
You won't even see me, oh no, for dust.

Chorus
                       D C 
I'm running with the pack,
                  D C 
Running with the pack,
                      D C 
I'm running with the pack,
                A7  (Repeat Intro)
Never looking back.


Verse chords
You try to keep me in cages,
But baby, you got to catch me first.
You think your law is contagious,
I'll do my best, you can do your worst.
I'm leaving you, now who can I trust;
You won't even see me, oh no, for dust.

Chorus chords
I'm running with the pack,
Running with the pack,
I'm running with the pack,
Never looking back.

Rest of the song uses the same pattern

Bad chords – I Said Yes

 BAD - I SAID YES


Intro:  C  -  G  -  Am  -  Fmaj7  (x2)


                 C G 
When it's over they will say we two were bandits,
               Am Fmaj7 
They will document our exploits in the press,
              C G 
How we terrorized the ranches and the railroads,
             Am Fmaj7 
How we menaced all the sheriffs in the west,

               C G 
They will print our little pictures in the paper,
            Am Fmaj7 
With a list of all our crimes and our arrests,
               C G 
When it's over they will say we two were bandits,
        Am Fmaj7 
And history, as they say, is the rest - we were the best


 C  -  G  -  Am  -  Fmaj7  (x2)


 C G Am 
I hear a choir of dislocated women singing dirges for their daughters
                Fmaj7 C 
Who had found themselves inside the county jail,
                                    G Am 
I can feel the precious metal of the barrel of your colt against my heart
                           Fmaj7 C G 
'Cause when we argued you would sometimes pull a gun on me,
                 Am Fmaj7 
Then we'd think of something,
                    C G Am Fmaj7 
It was the rage of the game you were playing me,

 C G Am 
I see this fire of all the things I'm losing spinning rubies from the saddlebag
    Fmaj7 C 
I think that means I may be losing you,
                                     G Am 
And I know that I could take this in my stride if you were riding at my side
                        Fmaj7 C G 
'Cause you'd be here and through the hoof-dust you would wink at me oh,
                  Am Fmaj7 
Then you'd think of something,
                       C G Am Fmaj7 
You were the brains of the gang and the bravery,
                    C G Am Fmaj7 
And I am afraid of the man who is chasing me.

     C G 
I don't have a suggestion who these followers could be,
      Am Fmaj7 
But every time I turn around they're gaining on me,
 C G 
Lucy is exhausted, she's never seen the sea,
            Am Fmaj7 
And I know she'd be delighted by your company,

              C G 
Now she may not be the quickest horse that you will ever see,
              Am Fmaj7 
And she caught a sock of buckshot back in 1933,
             C G 
But she likes the smell of powder and she likes the smell of me,
        Am Fmaj7 
She likes the lick of leather on her one, two, three -

                C G 
Do you remember when we said we'd go to panama?
               Am Fmaj7 
Well that seems somewhat improbable somehow,
                C G 
Do you remember all the other things I'd promised you?
                 Am Fmaj7 
They're becoming rather difficult now,

 C G 
This could be the song we said we'd write for you,
 Am Fmaj7 
I could be those friends you never had,
            C G 

Deanna chords – Nick Cave And The Bad Seeds

 Song: Deanna
Artist: Nick Cave & The Bad Seeds
 Tender Pray
Year: 1988
Tabber: beranger80@hotmail.com



 C F 
Oh Deanna
      C 
Oh Deanna!
 F C 
Oh Deanna
 F C 
You know you are my friend, yeah
 F D G 
And I ain't down here for your money
 G D G 
I ain't down here for your love
 G D D 
I ain't down here for your love or money
 D C 
I'm down here for your soul



 C F 
There's no carpet on the floor
 C F 
And the winding cloth holds many moths
 C F 
Around your Klu-Klux furniture
 C F               
I come of deaths head in your frock
 D G 
We discuss the murder plan
 D G 
We discuss murder and the murder act
 D G 
Murder takes the wheel of your Cadillac
 G C 
And death climbs in the back



 C F 
Oh Deanna
 F C 
Oh oh Deanna
 F C 
Sweet Deanna
 F C 
Oh oh Deanna
 F C 
Well, this is a car
 F C 
and this is a gun now
 F C 
And this a day number one
 F C 
Oh Deanna
 F D 
The little crime woven histories
 G D 
are black and a smoking christmas trees
 G D 
And honey, it ain't mystery
 G C 
Why you're a mystery to me



 F C 
We will eat out of their pantries
 F C 
And their parlours
 F C 
Ashy leaving in their beds
 F D 
And we'll unload into their heads
 G D 
On this mean season
 G D 
But this little angel that I squeezing
 G 
She ain't been mean to me



 C F 
Oh Deanna
      C 
Oh Deanna!
 F C 
Oh Deanna
 F C 
You are my friend and my partner
 F C 
On this house on the hill
 G D G 
I ain't down here for your love or money
 G D G 
I ain't down here for your love 
 G C 
I'm down here for your soul




 C F 
Oh Deanna
 C F 
Oh Deanna
 F C 
I  Am A  knocking
 F C 
With my toolbox and my stocking
 F C 
Well I'll meet you on the corner
 F C 
And you point it like a finger
 F C 
And squeeze its little things now
 F C 
I hear it's kick, hear it's bang
 F D 
And let no worry about it's issue
 G D 
Don't worry about where its been
 G D 
and don't worry about where it hits
 G C 
Cause it just ain't yours to sin




 C F 
Oh Deanna
 F C 
No it just ain't your to sin
 F C 
Sweet Deanna
 F C 
I ain't getting any younger
 F C 
And I don't intend gettin' any older
 F C 
The sun a hump at my shoulder
 C F 
Oh Deanna              
 F <sp

Rhob Cunningham – A Good Or Bad Thing chords

 http://www.rhobcunningham.com/


 G Em Am C 
Come sit down here and let me tell ya how it's gonna go down,
 G Em Am C 
Lend an ear and hear about the reasons you don't have to be down
 G Em Am C 
And i won't bite, but if i can say these words right I can see how they might how,
 G Em Am C 
Everything you do comes back at you
                      
                       Am C 
And it's not a good or bad thing,
                           G 
it's just funny cause it's true
     Em Am C 
You know oh, oh oh woah,

     G Em Am C         
And I don't mind how you spend your time 
     G Em Am C 
but please don't try and steal mine,
     G Em Am C   
And I don't mind how I'm feeling,
          G Em Am C   
With my head on the floor, and my eyes on the ceiling
 G Em Am C   
Oh oh, you know oh, oh oh woah,

 G Em Am C 
Come, come down it's a crystal picture and wait for it to hit ya,
 G Em Am C 
Lend an ear and hear about the wrong road and where it'll get ya now, 
 G Em Am C 
and I won't bite but if I can say these words right how they might how,

 G Em Am C 
Everything you do comes back at you  
                       Am C 
And it's not a good or bad thing,
                           G 
it's just funny cause it's true
    Em Am C 
Oh oh, you know oh, oh oh haaaaaii,



     G Em Am C         
And I don't mind how you spend your time 
     G Em Am C 
but please don't try and steal mine,
     G Em Am C   
And I don't mind how I'm feeling,
          G Em Am C   
With my head on the floor, and my eyes on the ceiling
 G Em Am C 
Woah oh, mmm woah oh, woah oh,
 G Em Am C 
Woah oh, mmm woah oh, woah oh,
     G Em Am C         
And I don't mind how you spend your time 
     G Em Am C         
And I don't mind how you spend your time 
     G Em Am C         
And I don't mind how you spend your time 
     G Em Am C G  
but please don't try and steal mine.

http://www.rhobcunningham.com/

Cardiac Arrest chords – Bad Suns

 http://www.windishagency.com/artists/bad_suns
i watched an acoustic version on youtube and wasn't positive about this but its 
fun to sing the chorus


looked like he had a capo on the 7th fret

(I'll try my best)

e---3----2----3----2----3---2----2-----2--------------------------------|
B---3----3----3----3----3---3----3-----3--------------------------------|
G---0----2----0----2----0---2----4-----2--------------------------------|
D---0----0----0----0----0---0----4-----0--------------------------------|
A---2---------2---------2--------2--------------------------------------|
E---3---------3---------3-----------------------------------------------|

    G D G D G D Bm D G D 
I'll try my best
      G D 
How much do i invest
      G D 
Like cardiac arrest
      Bm D 
High voltage when we kiss


great song... i hope this is a start...havent seen any other tabs for it yet

So Sad To Watch Good Love Go Bad chords – Everly Brothers

 #-------------------------------PLEASE NOTE-------------------------------------#
# This file is the author's own work and represents their interpretation of the #
# song. You may only use this file for private study, scholarship, or research. #
#-------------------------------------------------------------------------------#
So Sad (To Watch Good Love Go Bad) chords
The Everly Brothers 1960

Capo II*

 A7 G F#m Em D G Em A7 
We used to have good times together
 D G Em A7 
But now I feel them slip away

 D G D Bm 
It makes me cry  to see love die
 D G A A7 D    ( A7 G F#m Em )
So sad to watch good love go bad

 D G Em A7 
Remember how you used to feel dear?
 D G Em A7 
You said nothing could change your mind

 D G D Bm 
It breaks my heart to see us part
 D G A A7 D D7 
So sad to watch good love go bad

 G Em A7 
Is it any wonder
                D D7 
That I feel so blue?
 G Em E7 
When I know for certain
                 A A7 
That I'm losing you

 D G Em A7 
Remember how you used to feel dear?
 D G Em A7 
You said nothing could change your mind

 D G D Bm 
It breaks my heart to see us part
 D G A A7 D    
So sad to watch good love go bad
           G A A7 D 
So sad to watch good love go bad 

* Alternate:

Open

 D    =  E G    =  A Bm   =  C#m A    =  B Em   =  F#m A7   =  B7 F#m  =  G#m E7   =  F#7 D7   =  E7 


Set8

Gone Gone Gone intro Tabs by Bad Company

 -----------------------------------------------------------------------------
                                  
                Gone, gone, gone  - Bad Company (GUITAR)
            
-----------------------------------------------------------------------------
: Scotto10

Tuning: Standard

Sorry, it's not the entire song but I have too much going on in my life to tab 
out all the solos now. for a couple of years I would sit and tab for days on a 
solo until I got on "paper" but I just don't have time for that now. Hop 
someone can enjoy this anyway.

=============================================================================

                                                         
Guitar



               PM PM PM                 PM PM PM                 PM PM PM       
     Q    Q    E  E  E  E     Q    Q    E  E  E  E     Q    Q    E  E  E    E   
E||------------------------|------------------------|--------------------------|
B||------------------------|------------------------|--------------------------|
G||-------2----------------|-------2----------------|-------2------------------|
D||--5----2-------------5--|--L----2-------------5--|--L----2-------------4g5--|
A||--5------------------5--|--L------------------5--|--L------------------4g5--|
E||------------0--0--0-----|------------0--0--0-----|------------0--0--0-------|


            PM PM PM                                              
  Q    Q    E  E  E  E     W                   H        H         
------------------------|-------------------|--------------------|
------------------------|-------------------|--------------------|
-------2----------------|--9----------------|--------------------|
--L----2----------------|--9----------------|--L-----------------|
--L---------------------|--7----------------|--L-----------------|
------------0--0--0--0--|--0----------------|--L--------L--------|


            PM PM PM                   PM PM PM                         
  Q    Q    E  E  E    E     Q    Q    E  E  E  E     W                 
--------------------------|------------------------|-------------------|
--------------------------|------------------------|-------------------|
-------2------------------|-------2----------------|--9----------------|
--5----2-------------4g5--|--L----2----------------|--9----------------|
--5------------------4g5--|--L---------------------|--7----------------|
------------0--0--0-------|------------0--0--0--0--|--0----------------|


                                 PM PM PM                   PM PM         
  H        H           Q    Q    E  E  E    E     Q    Q    E  E  E   E   
--------------------|--------------------------|-------------------------|
--------------------|--------------------------|-------------------------|
--------------------|-------2------------------|-------2--------------2--|
--L-----------------|--5----2-------------4g5--|--L----2--------------2--|
--L-----------------|--5------------------4g5--|--L-------------------0--|
--L--------L--------|------------0--0--0-------|------------0--0--3b-----|


  W                   W                   W                   W                 
-------------------|-------------------|-------------------|-------------------|
-------------------|-------------------|-------------------|-------------------|
--L----------------|--L----------------|--5----------------|--L----------------|
--L----------------|--L----------------|--5----------------|--L----------------|
--L----------------|--L----------------|--3----------------|--L----------------|
-------------------|-------------------|--3----------------|--L----------------|


  W                   W                   Q    Q    E   E  Q     
-------------------|-------------------|-------0-----------0----|
-------------------|-------------------|-------0-----------0----|
-------------------|--4----------------|--1----------------2---

The Easy Mark The Old Maid Tabs by Bad Books

 The Easy Mark & The Old Maid by Bad Books

I learned this song by watching a video of Kevin Devine playing it solo - it matches
the album version.

Capo 2nd fret
Chords are relative to capo

Verse:

  Am Gadd11/B  G

E--x---x-------3-2-|
B--1---1-------0-0-|
G--2---0-------0-0-|
D--2---0-------0-0-|
A--0---2-------x-x-|
E--x---x-------3-3-|

Chorus:

   C    D   Em  G   C     G

E--00-3-2---0-0-3---x--x--3-|
B--11-1-3---0-0-0---5--4--0-|
G--00-0-2---0-0-0---5--5--0-|
D--22-2-0---2-0-0---5--5--0-|
A--33-3-x---2-0-x---3--3--x-|
E--xx-x-x---0-2-3---x--x--3-|

after the second chorus going into the bridge he slides up from the G to this chord:

E--7-|
B--0-|
G--0-|
D--0-|
A--0-|
E--7-|

Bridge:

   Em  A   C Cm

E--7---5---x-x---3-|
B--8---5---5-4---3-|
G--9---6---5-5---4-|
D--9---7---5-5---5-|
A--7---7---3-3---5-|
E--x---5---x-x---3-|

second time through:

   Em  A   C   Cm  D

E--7---5---x---x---2-|
B--8---5---5---4---3-|
G--9---6---5---5---2-|
D--9---7---5---5---0-|
A--7---7---3---3---x-|
E--x---5---x---x---x-|

Ending:
alternate your picking between the bass notes and the lead notes

E--0-2-3-0-3---xx-x-3--|
B--0-----------55-4-3--|
G--0-----------55-5-4--| X4
D--0-----------xx-x-5--|
A--x-----------xx-x-5--|
E--3-3-3-3-3---33-3-3--|

Cant Get Enough chords – Bad Company V2

 #----------------------------------PLEASE NOTE--------------------------------#
#This file is the author's own work and represents their interpretation of the#
#song. You may only use this file for private study, scholarship, or research.#
#-----------------------------------------------------------------------------#
#-----------------------------------------------------------------------------#
#   If you like this tab, please rate it above.  Thank you.
#-----------------------------------------------------------------------------#

 John Shaw (jashaw@shaw-web.net)
Artist:Bad Company

Intro

||:  C A# A# F Bb F :|| (twice)

Verse 1
           C A# F - Bb - F Bb - F  
Well I'll take whatever I want
     C A# F - Bb - F Bb - F  
And baby, I want you
 C A# F - Bb - F Bb - F 
You give me something I need
     C A# F - Bb - F Bb - F    
Now tell me I got something for you
 G                                 
Come on, come on, come on and come on and do it
 A# F Eb -  Eb       
Come on and do what you do


Chorus
 C - F C - F F - Bb F - Bb                    
I can't get enough of your love
 C - F C - F F - Bb F - Bb                    
I can't get enough of your love
 C - F C - F F - Bb F - Bb G - C - C - G  
I can't get enough of your love 

(Intro Once)

Verse 2
           C A# F - Bb - F Bb - F  
Well it's late and I want love
     C A# F - Bb - F Bb - F  
Love is gonna break me in two
 C A# F - Bb - F Bb - F 
Don't hang me up at your doorway 
 C A# F - Bb - F Bb - F 
Don't hang me up like you do
 G 
Come on, come on, come on and come on and do it
 A# F Eb -  Eb       
Come on and do what you do

Repeat Chorus

Lead (over Verse and Chorus)

Repeat Chorus to end

End lead over Chorus