Tag: ball

Ball And Chain chords – Murder by Death

 Ball and Chain
Murder by Death

After years and years of taking, I have finally contributed.

Em/B 1 X X X 4 5 3

This version is tabbed with 1 step down tuning, as performed acoustically. (youtu.be/adE6sW1Oh4Y)

Intro
 Am Dm Em/B Dm E Dm Em/B Dm E Am E Am Am Dm Em/B Dm E 
When I fall, I         fall hard.
 Dm Dm Em/B Dm E 
My body b--------ruises at your touch,
    Am E 
my  ankles bear these lover's scars.
     Am Dm Em/B Dm E 
The  weight is heavy, but         necessary.
        Dm Dm Em/B Dm Am E Am 
You'll  never change          my ball and chain. 

Chorus
 Dm Am 
My ball and chain you  will remain.
 Em Am E Am 
You've always been my ball and chain. 


Guitar Solo

 Am Dm Em/B Dm E 
She lingers somewhere I         cannot find.
 DM Dm Em/B Dm 
My lover stands         upon the shore,
      Am E 
it's me she should be waiting for.
     Am Dm Em/B Dm E 
The  distance binds us          locked in twain.
     Dm Dm Em/B Dm Am E Am 
You will remain         my ball and chain.

Chorus
 Dm Am 
My ball and chain you  will remain.
 Em Am E Am 
You've always been my ball and chain. 


Interude
 Am Dm E Am Am Dm E Am F Am E Am F E Am Am Dm Am Dm E 


Chorus
 Dm Am 
My ball and chain you  will remain.
 Em Am E Am 
You've always been my ball and chain. 

Wrecking Ball Acoustic chords – Miley Cyrus

 Artist: Miley Cyrus
Song: Wrecking Ball (acoustic)
Video: https://www.youtube.com/watch?v=My2FRPA3Gf8
Cover video: https://www.youtube.com/watch?v=pLmaF4qXs3k
Transcription: SCA, kostya.levin.sca 

Tuning: standard
Capo: 3rd fret

Chords used:
D:   x.x.0.2.3.2
G:   3.2.0.0.3.3
Bm:  x.2.4.4.3.2 
A:   x.0.2.2.2.0
F#m: 2.4.4.2.2.2

Verse:
 Bm D        
We clawed, we chained, our hearts in vain
 A G 
We jumped, never asking why
 Bm D    
We kissed, I fell under your spell
 A G  
A love no one could deny

Pre-chorus:
 Bm D       
Dont you ever say I just walked away
 A G 
I will always want you
 Bm D    
I cant live a lie, running for my life
 A G 
I will always want you

Chorus:
                       D A 
I came in like a wrecking ball
 Bm G 
I never hit so hard in love
               D A  
All I wanted was to break your walls
 Bm G 
All you ever did was break me
 Bm G 
Yeah, you wreck me

Verse:
 Bm D        
I put you high up in the sky
     A G          
And now, you're not coming down
    Bm D  
It slowly turned, you let me burn
     A G 
And now, we're ashes on the ground

Pre-chorus:
 Bm D 
Dont you ever say I just walked away
 A G 
I will always want you
  Bm D 
I cant live a lie, running for my life
 A G 
I will always want you

Chorus:
                  D A 
I came in like a wrecking ball
                Bm G 
I never hit so hard in love
                     D A 
All I wanted was to break your walls
                  Bm G 
All you ever did was break me
                  D A 
I came in like a wrecking ball
                         Bm G 
Yeah, I just closed my eyes and swung
                        D A  
Left me crouching in a blaze and fall
                  Bm G 
All you ever did was break me
       Bm G 
Yeah, you wreck me

Bridge:
                          Bm                            
I never meant to start a war
                             D 
I just wanted you to let me in
                       F#m 
And instead of using force
                             G 
I guess I should've let you in
                          Bm 
I never meant to start a war
                             D 
I just wanted you to let me in
                             F#m 
I guess I should've let you in

Pre-chorus:
 Bm D 
Dont you ever say I just walked away
 A G 
I will always want you

Chorus:
                  D A 
I came in like a wrecking ball
                Bm G 
I never hit so hard in love
                     D A 
All I wanted was to break your walls
                  Bm G 
All you ever did was break me
                  D A 
I came in like a wrecking ball
                         Bm G 
Yeah, I just closed my eyes and swung
                        D A  
Left me crouching in a blaze and fall
                  Bm G 
All you ever did was break me
       Bm G 
Yeah, you wreck me
       <s

The Mill Hill Self Hate Club chords – Edward Ball

 EDWARD BALL / THE MILL HILL SELF HATE CLUB
(from 'Catholic Guilt', 1997)

The verses all follow the same simple pattern:  F  -  G  -  Am  -  Am 
And so does the refrain:  C  -  D7  -  F  -  F 
The rest can be easily improvised.
Check out the song here: https://www.youtube.com/watch?v=jIUI_NontJI



 F G Am Am F G Am Am F G     
A dark shadow hangs over me 
    Am  
It follows me wherever I go
      F G 
So I wrote this song for the girl by the sea
    Am   
To remind me that we were once close

         F G 
I could never stand to be without you 
     Am  
But when we were together, well we just couldn't stop fighting
        F G 
If you see her, gonna tell her, gonna tell if you see her 
        Am  
That I really really miss her
       
                C D7 
        If you see her, tell her 
             F 
        I'm standing at the Fiveways as the world spins round around me
                C D7 
        If you see her, tell her 
             F 
        I'm just another member of the Mill Hill Self Hate Club

         Am G F F Am G F F F G 
On London Fields I fell for a girl
    Am  
On Primrose Hill she changed my world
      F G 
In a storm at Dover
   Am  
I knew our love would open up

 F G 
Then she brought me back to life
 Am  
Just to have me crucified
     F G 
For fourteen stations of my cross
      Am  
From Waterloo to Dover Docks

            F G 
But if you see her, gonna tell her, gonna tell her if you see her
        Am  
That I really really miss her

                C D7 
        If you see her, tell her, 
             F 
        I'm standing at the Fiveways as the world spins round around me
                C D7 
        If you see her gonna tell her, gonna tell her if you see her
           F                                                            
        I really really miss her and it's driving me insane     

                C D7 
        If you see her, tell her 
             F 
        I'm standing at the Fiveways as the world spins round around me
                C D7 
        If you see her, tell her, 
             F 
        I'm just another member of the Mill Hill Self Hate Club

                C D7 
        If you see her, tell her (won't you, please?)
             F 
        I'm just another member of the Mill Hill Self Hate Club 
                C D7 
        If you see her gonna tell her, gonna tell her if you see her
           F                                                            
        I really really miss her and it's driving me insane     

                C D7 
        If you see her, tell her 
             F 
        I'm just another member of the Mill Hill Self Hate Club 
                C D7 
        If you see her gonna tell her, gonna tell her if you see her
           F                                                            
        I really really miss her...

Play Ball Tabs – Ac Dc V4

 -------------------------------------------------------------------------------
                             Play Ball - AC/DC
-------------------------------------------------------------------------------
: problemchildcf


Tuning: Standard

I didn't write every little strum, but you get the idea
and have the chords and notes to work with. 
Enjoy and long live AC/DC!


Intro Riff
   G    C Csus4 C              G
e|-3------------------|     e|-3----| 
B|-3----1---1---1-----|     B|-3----| 
G|-0----0---0---0-----|     G|-0----| 
D|-0----2---3---2-----| X3  D|-0----| 
A|------3---3---3-----|     A|------| 
E|-3------------------|     E|-3----| 

Angus Verse Riff
   G   C Csus4
e|-3---------------------------------------|
B|-3---1---1---------1--1--3--5--6--5------|
G|-0---0---0-------------------------------|  (note this is hybrid picking and for technique, use ring
D|-0---2---3----0h2-----3--3--5--5--5------|   finger for the 3 to 5 change, then pinky on the 6th fret)
A|-----3---3-------------------------------|
E|-3---------------------------------------|

Angus Chorus
e|-----------------------------------------|
B|--3---5---6---5----8-----10---11----10---|
G|-----------------------------------------|
D|--5---5---5---5----10----10---10----10---|
A|-----------------------------------------|
E|-----------------------------------------|

Stevie Chorus
   G   C Csus4 C      C   F Fsus4 F
e|-3----------------------1---1---1--------|
B|-3---1---1---1------1---1---1---1--------|
G|-0---0---0---0------0---2---3---2--------|
D|-0---2---3---2------2---3---3---3--------|
A|-----3---3---3------3--------------------|
E|-3---------------------------------------|

Angus Pre Verse 2            And later in the song, moves up to this
e|-----3---------------------------------5----------------------|
B|-6b-----6p3------------------------8b-----8p5-----------------|
G|-------------5brp3-----------------------------7brp5----------|
D|--------------------5---------------------------------7-------|
A|--------------------------------------------------------------|
E|--------------------------------------------------------------|

Stevie During Solo
   A   A   A   A
e|-------------------------------------------------------------------------------|
B|-------------------------------------------------------------------------------|
G|-2---2---2---2-------------------2---4---5---4-------------------2---4---5---4-|
D|-2---2---2---2---2---4---5---5---0---0---0---0---2---4---5---5---0---0---0---0-|
A|-0---0---0---0---0---0---0---0-------------------0---0---0---0-----------------|
E|-------------------------------------------------------------------------------|

Outro Stevie Chords in the song                  And Angus leaves this hanging
   G    G    F    F  Eflat  C    G
e|-3----3------------------------3----------------------------------|
B|-3----3------------------------3-------------------------12~------|
G|-0----0----3----3----8----5----0-------------------------12~------|
D|-0----0----3----3----8----5----0----------------------------------|
A|-----------1----1----6----3---------------------------------------|
E|-3----3------------------------3----------------------------------|

Wrecking Ball chords – Chris Pureka

 A good video (not mine) to see the chord progression is: 
https://www.youtube.com/watch?v=1SwxOIVZ2Pw

     Am          ( H )             F      ( D )      C G Em 
-------------------------------------------------------------|
----1-----1----3---1---1-----1------1-------1----------------|
----h2----2----2---2---2-----2------0-------0--------1-----1-|
----h2----2----2---2---3-----3------2-------0--------0-------|
-----------------------------3------3-------3--------2-----2-|
-----------------------------------------------------3-------|


 Am F Am F Am F C G Am  ( H )
I pushed it hard, 
       F  ( D )     Am       ( H )
that goddamn wrecking ball, 
 F   ( D )   Am F     
and I waited for the 
 C G Am   ( H )
weight to swing around but it never did. 
 F    ( D )   Am          ( H )
And the crows they fell 
 F       ( D )  Am        ( H )
around my eyes and still 
      F   ( D )        C G 
no sign of that ball and chain

              Am   ( H )
I pushed it hard,
       F   ( D )    Am       ( H )
that goddamn wrecking ball. 
        F   ( D )  Am   ( H )   F  ( D )
What kind of pendulum 
 C G 
never comes back home? 
              Am        ( H )
You start to miss it some. 
       F  ( D )   Am        ( H )
The way you miss the rain, 
    F    ( D )    Am        ( H )       F    ( D )  C G 
the way you miss the fighting when the war is won... 

 G C Em Am G C Em Am 
But what  I  miss the most is knowing just exactly where it hurts, 
       G C Em Am 
is knowing just exactly what is wrong 
              G G 
And what I want, and what I want... 


 Am  ( H )  F  ( D )  Am  ( H )  F  ( D )  Am  ( H )  F  ( D )  C G Am  ( H )
I miss the ghost trees, 
     F  ( D )   Am        ( H )
the weary midnight drives,
        F  ( D )   Am     ( H )  F   ( D )   C G 
the taste of loneliness in the air beyond the towns.
             Am     ( H )  F   ( D )    Am       ( H )
I miss the resonance of those trigger words, 
       F  ( D )   Am          ( H )    
that crazy   one track mind. 
 F  ( D )  C G 
Sometimes I miss the cold... 
 G C Em Am G C Em Am 
But what  I  miss the most is knowing just exactly where it hurts, 
       G C Em <

Mirror Ball Acoustic chords – Damon Johnson

 This is Damon Johnson's live, solo, acoustic version of "Mirror Ball" (from his 
Brother Cane days and the Wishpool album).

Tune down a 1/2 step.

Capo 2

Chords used (all chords are relative to the capo and based on standard tuning): 
       E  A  D  G  B  E
Am     x  0  2  2  1  0
A      x  0  2  2  2  0
C      x  3  2  0  1  0
Cadd9  x  3  2  0  3  3
F      1  3  3  2  1  1
G      3  2  0  0  3  3  
Em     0  2  2  0  0  0

Intro:   Am C G F   (x2)

 Am C G F Am C G F 
Spinning mirror ball, hanging over me
 Am C G F Am C G F 
Spinning mirror ball, are you listening?
 Am C G F 
Don't justify or hesitate, feel the sorrow when you wait
 Am C G F 
Close your eyes and don't ask why; you will need no alibi
 Am C G F Am C G F 
Lucky mirror ball, hanging over me

 Am F Em 
Can you see me now
 Am F Em 
Come and show me, show me how

 Am Cadd9 G 
I'm waiting, been standing on the line
 Am Cadd9 G 
Just waiting, I'm crossing over this time
 Am Cadd9 G C 
Don't save me; looks like I'm finally out of my mind

 Am C G F   (x2)

 Am C G F Am C G F 
Lucky mirror ball, never lie to me
 Am C G F Am C G F 
Is it real at all, immortality?
 Am C G F 
Not satisfied in between, living here with all these things
 Am C G F 
I can see the other side; do I dare to take that ride?

 Am Cadd9 G 
I'm waiting, been standing on the line
 Am Cadd9 G 
Just waiting, I'm crossing over this time
 Am Cadd9 G C 
Don't save me; looks like I'm finally out of my mind

 A G A G A G A G 
Hold me now, and I will wait
 A G A G 
Dreams can lie, and drift away

 A G A G Am C G F Am C G F 
Spinning mirror ball, are you listening
 Am C G F Am C G F 
Spinning mirror ball, never lie to me

 Am F Em 
Can you see me now
 Am F Em 
Come and show me, show me how

 Am Cadd9 G 
I'm waiting, been standing on the line
 Am Cadd9 G 
Just waiting, I'm crossing over this time
 Am Cadd9 G C 
Don't save me; looks like I'm finally out of my mind

Wrecking Ball chords – Asgeir

 F#m A 
We clawed, we chained our hearts in vain,
 E D 
We jumped, never asking why,
 F#m A 
We kissed, I fell under your spell,
     E D 
A love no one could deny.


                         F#m A 
Don't you ever say : I just walked away,
                     D A 
I will always want you.
                         F#m A 
I can't live a lie, running for my life,
                     D A 
I will always want you.



                             A E 
I came in like a wrecking ball,
                                  F#m 
I never hit so hard in love,
                             A E 
All I wanted was to break your walls,
                F#m D 
All you ever did was wreck me,
                F#m D 
Yeah you, you wreck me.


    F#m A 
I put you high up in the sky
        E D 
And now you're not coming down,
      F#m A 
It slowly turned, you let me burn
        E D 
And now we're ashes on the ground.



                         F#m A 
Don't you ever say : I just walked away,
                     D A 
I will always want you.
                         F#m A 
I can't live a lie, running for my life,
                     D A 
I will always want you.



                             A E 
I came in like a wrecking ball,
                          F#m 
I never hit so hard in love,
                             A E 
All I wanted was to break your walls,
                F#m D 
All you ever did was wreck me,
                F#m D 
Yeah you, you wreck me.
                             A E  
I came in like a wrecking ball,
                                     F#m  
Yeah, I just closed my eyes and swung,
                             A E 
Left me crashing in a blazing fall,
                F#m D 
All you ever did was wreck me,
                F#m D 
Yeah you, you wreck me.


  D F#m 
I never meant to start a war,
         F#m A 
I just wanted you to let me in
   A E 
And instead of using force,
  D F#m               
I guess I should've let you win,
         F#m A 
I never meant to start a war,
   A E 
I just wanted you to let me in,
  D F#m     
I guess I should've let you win.



                         F#m A 
Don't you ever say : I just walked away,
                     D A 
I will always want you.



                             A E 
I came in like a wrecking ball,
                          F#m 
I never hit so hard in love,
                             A E 
All I wanted was to break your walls,
                F#m D 
All you ever did was wreck me,
                F#m D 
Yeah you, you wreck me.
                             A E  
I came in like a wrecking ball,
                                     F#m  
Yeah, I just closed my eyes and swung,
                             A E</spa

Wrecking Ball Tabs by Miley Cyrus

 Wrecking Ball - Miley Cyrus
~ Voice Melody tabbed for guitar ~

Tab by Avi Yaacov
Israel, January 29, 2014


To make it easier to play, place a capo on 5th fret adjust the tab accordingly.



Verse:

e|--5-----5------5-----5-----|-------|-------------|
B|---------------------------|----5--|--5-3-5-6-3--|
G|-----7-----7------5-----5--|--5----|-------------|  
D|---------------------------|-------|-------------|   X 2
A|---------------------------|-------|-------------|
E|---------------------------|-------|-------------|



Pre-Chorus:

e|-------------|-------------|---------------|
B|--3-3-3-1----|--3-3-3-1----|--1-1-1--------|
G|----------2--|----------2--|--------3-2----|
D|-------------|-------------|------------3--|   X 2
A|-------------|-------------|---------------|
E|-------------|-------------|---------------|




First Chorus:

e|--5-6-6--6-6--6-5-5--|--5-6-5-----6-5-5--|
B|---------------------|--------8-6--------|
G|---------------------|-------------------|
D|---------------------|-------------------|
A|---------------------|-------------------|
E|---------------------|-------------------|

e|------6-5-----6-5-5--|------6-5--------5/6-5---6--|------5/6-5---6--|
B|--6-8-----8-6--------|--6-8-----8-6----------8----|--6-6-------8----|
G|---------------------|----------------------------|-----------------|
D|---------------------|----------------------------|-----------------|
A|---------------------|----------------------------|-----------------|
E|---------------------|----------------------------|-----------------|



Second Chorus:

e|--5-6-6--6-6--6-5-5--|--5-6-5-----6-5-5--|
B|---------------------|--------8-6--------|
G|---------------------|-------------------|
D|---------------------|-------------------|
A|---------------------|-------------------|
E|---------------------|-------------------|

e|------6-5-----6-5-5--|------6-5--------5/6-5---6--|
B|--6-8-----8-6--------|--6-8-----8-6----------8----|
G|---------------------|----------------------------|
D|---------------------|----------------------------|
A|---------------------|----------------------------|
E|---------------------|----------------------------|

e|------6-5-----6-5-5--|------6-5--------5/6-5---6--|------5/6-5---6--|
B|--6-8-----8-6--------|--6-8-----8-6----------8----|--6-6-------8----|
G|---------------------|----------------------------|-----------------|
D|---------------------|----------------------------|-----------------|
A|---------------------|----------------------------|-----------------|
E|---------------------|----------------------------|-----------------|



Bridge:

e|-------------6-5-5--|---------------6-5-5--|-----------6-5-5--|
B|--5-6-6--6-6--------|--3-5-6-6--6-6--------|--6-6--6-6--------|
G|--------------------|----------------------|------------------|
D|--------------------|----------------------|------------------|
A|--------------------|----------------------|------------------|
E|--------------------|----------------------|------------------|

e|-------------6-5-5--|-------------6-5-5--|---------------6-5-5--|
B|--5-6-6--6-6--------|--5-6-6--6-6--------|--3-5-6-6--6-6--------|
G|--------------------|--------------------|----------------------|
D|--------------------|--------------------|----------------------|
A|--------------------|--------------------|----------------------|
E|--------------------|--------------------|----------------------|

e|--------------5h6-5-5--|
B|----6-6--6-6-----------|
G|--7--------------------|
D|-----------------------|
A|-----------------------|
E|-----------------------|

Mirror Ball chords – Brother Cane

 I believe that BC plays this song in some type of open tuning, but I can't figure out 
which one.  I also think they often tune down a 1/2 step from the open tuning.

All that to say, I have some questions about how correct this one is, but this version 
works for me.  I'm sure there are a couple of errors, and I welcome suggestions to fix 
them.  This song is a bit tricky for my ear.

Chords used: 
Bm     x  2  4  4  3  2
D      x  x  0  2  3  2
A      x  0  2  2  2  0
A(v2)  5  7  7  6  5  5
G      3  2  0  0  0  3  (I like to play it as 320033)
G(v2)  3  5  5  4  3  3
F#m    2  4  4  2  2  2
Dm     x  5  7  7  6  5
G#     4  6  6  5  4  4
B      x  2  4  4  4  2
D(v2)  x  5  7  7  7  5  (I think it sounds fine to play 1st position D here)

Intro:   Bm D A G   (x2)

 Bm D A G Bm D A G 
Spinning mirror ball, hanging over me
 Bm D A G Bm D A G 
Spinning mirror ball, are you listening?
 Bm D A G 
Don't justify or hesitate, feel the sorrow when you wait
 Bm D A G 
Close your eyes and don't ask why; you will need no alibi
 Bm D A G Bm D A G 
Lucky mirror ball, hanging over me

 Bm G (v2)   F#m 
Can you see me now
 Bm G (v2)      F#m 
Come and show me, show me how

 Bm Dm A (v2)
I'm waiting, been standing on the line
 Bm Dm A (v2)
Just waiting, I'm crossing over this time
 Bm Dm A (v2)        D (v2)
Don't save me; looks like I'm finally out of my mind

 Bm D A G   (x2)

 Bm D A G Bm D A G 
Lucky mirror ball, never lie to me
 Bm D A G Bm D A G 
Is it real at all, immortality?
 Bm D A G 
Not satisfied in between, living here with all these things
 Bm D A G 
I can see the other side; do I dare to take that ride?

 Bm Dm A (v2)
I'm waiting, been standing on the line
 Bm Dm A (v2)
Just waiting, I'm crossing over this time
 Bm Dm A (v2)        D (v2)
Don't save me; looks like I'm finally out of my mind

 B A (v2)   B A (v2)

 B A (v2)     B A (v2)
Hold me now, and I will wait
 B A (v2)      B A (v2)
Dreams can lie, and drift away

 B A (v2)   B A (v2)

Guitar solo chords:   Bm D A G Bm D A G Bm D A G 
Spinning mirror ball, are you listening
 Bm D A G Bm D A G 
Spinning mirror ball, never lie to me

 Bm G (v2)   F#m 
Can you see me now
 Bm G (v2)      F#m 
Come and sho

Wrecking Ball Tabs by Haim

 Intro and Verse
D5 F5 C5 Bb5
e|-------------------------------------------------|
B|-------------------------------------------------|
G|------7----77-----------------5----5------3-----3| 
D|------7----77-----3----3------5----5------3-----3|
A|-5-5----5-5-------3----3--3-3---3-3---1-1---1-1--|
E|--------------1-1---1-1--------------------------|(repeats until chorus)

We clawed, we chained, our hearts in vain
We jumped, never asking why
We kissed, I fell under your spell
A love no one could deny

Don't you ever say I just walked away
I will always want you
I can't live a lie, running for my life
I will always want you

Chorus
Chords used:
     F4       C4      D4     Bb4
e|---13---|---8---|---10--|---6--|
B|---14---|---9---|---11--|---7--|
G|---15---|---10--|---12--|---8--|
D|---15---|---10--|---12--|---8--|
A|---x----|---x---|---x---|---x--|
E|---x----|---x---|---x---|---x--|

F4 C4 D4 Bb4

I came in like a wrecking ball
I never hit so hard in love
All I wanted was to break your walls
All you ever did was break me
Yeah you, you wreck me

Second Verse( Same chords from first verse)

Bridge
I never meant to start a war
I just wanted you to let me in
And instead of using force
(After this bit Danielle plays)
D5 F5 A5
e|---------------------------|
B|---------------------------|
G|---------------------------| 
D|-12-----3-----7------------|
A|-12-----3-----7------------|
E|-10-----1-----5------------|


I guess I should've let you in
I never meant to start a war
I just wanted you to let me in
I guess I should've let you win


Chorus again



Ps. I hope i got it right, i'm new at this.


^^

Pot Of Gold chords – Ball Park Music

 Pot of Gold – Ball Park Music
(Ball Park Music songs are great fun to play on guitar!)

Intro (chords for Electric Piano)

 F# (8)     F# (8)    E (4)   Ebm (4)   A B   

Verse

 F# F#             
Holes get burnt,  in my clothes, 
 E Ebm A  -  B 
as my light bulb fizzes out baby
 F# F#             
Tripped on wires in the skies
 E Ebm A  –  B F# 
My machine comes crumblin down into the dirt

[Chorus]
 Ebm B       
I used to be just like you
             E Ebm             
I did the things that I liked to do 
       A B F# *            
But now I do what I’m told
          A B F# *
over my tiny little pot of Gold

[Intro] 

Verse 2

 F# F#             
Girls all take brand new dates
 E Ebm A  -  B 
They’re too beautiful and get roped in
 F# F#              
The Bank is huge, it’s shiny doors 
 E Ebm A  –  B F# 
are frightenin jaws,  chewin’ on my ancient DNA

[Chorus] – repeat last line 4x 
           and change F# to be as described at the bottom

[Guitarmony Interlude]

Chords:

     Ebm  –  B F# Ebm  –  B F# Ebm  –  B F# C#  (8)
 
[Bridge – ok I’ve no idea what these lyrics are!]

               Ebm B           
Oh.. I’m a complicated, annotated and I am
          E Ebm 
I am frequent flyer pharaoh and his friend
           A F#m 
I am a dead sole  I am a dead sole
         A C# 
I am a dead sole  So what…

[Chorus] – repeat last line 4x

[Guitarmony interlude x2]

(Outro –  A  –  B F# )


____________________________________________________________________________

From second choruses these F# chords are played like this:

    e|------------|
    B|------------|
    G|------------|
    D|-4-4-4-4--5-|
    A|-4-4-4-4--3-|
    E|-2-2-0-2----|

Another one for Tom and Geordie - BPM's biggest fans.
https://itunes.apple.com/au/album/museum-deluxe-edition/id658771412
 

Literally Baby chords – Ball Park Music

 Literally Baby – Ball Park Music

Intro (Drums and then):

Chords:       B E              x2     
Tab:
           |:                               :|
e|---------|-----------------------|---------|
B|---------|-----------------------|---------|
G|---------|-----------------------|---------|
D|---------|-----------------------|---------|
A|---------|------5---5---5--7-7---|-7-------|
E|-19\\\\\\|-7\----5h7-5h7-7-------|---0-0-0-|


 B (1)
I got shot straight out of a canon,
 E (1)
Up into the air all the circus animals
 B (1)                                                               E (1)
open their jaw and wave their shiny fangs at me as I fly down to you
 B (8)                E (8)
So come on get on top
 B (8)                   E (8)
Jump up and down for ever

Guitarmony Interlude:
Chords:

 D (1)    G (1)    F# - F# F# - F# *- F# *    F# *- Bm - Bm D (1)    G (1)    F# (8)

Tab:  

Guitar 2 (Guitarmony)

 |:                                 | 1st time       :|  
e|----------------------------------|-----------------|------------|
B|-10-8-7-8-7---7-------7-------7---|--------------7-7|------------|
G|------------9---9-7-9---9-7-9---9-|6-6--6-9-9--9----|666699996666|
D|----------------------------------|-----------------|------------|
A|----------------------------------|-----------------|------------|
E|----------------------------------|-----------------|------------|


 B (1)                                    
Elton John is not the perfect rifle but you
 E (1)
Fire him good, you can make a miracle in 
 B (1)                                  E (1)
her two hands let the little animal crawl into the room
 B (8)               E (8)
So come on get on top
 B (8)                  E (8)
Jump up and down for ever

[Chorus]
 D (1)         G (1)               F# - F# F# - F# *- F# F# *- Bm - Bm 
 Our bits smash together like fresh fruit in the sun
 D (1)         G (1)               F# - F# F# - F# *- F# F# *- Bm - Bm 
We’re not worried we’re just having fun
 D (1)         G (1)               F# - F# F# - F# *- F# F# *- Bm - Bm 
 Our bits smash together like fresh fruit in the sun
 D (1)        G (1)              F# (16)
We’re not worried we’re just having fun……literally Baby

Solo (can type it up if requested)

Chords for Solo:   B (1)    E (1)    B (1)    E (1)

 B (8)                E (8)
So come on get on top
 B (8)                  E (8)
Jump up and down for ever

[Chorus]

[Intro] and finish on B

____________________________________________________________________

* bass plays A# on this chord

For BPM’s best fans: Tom and Geordie at Laugh and Learn

Wrecking Ball Tabs by Sungha Jung

 Miley Cyrus - Wrecking Ball (Sungha Jung) 

Tuning:DADGBe

Capo: 3rd Fret



Intro:

e-------------------------------------------------------------------------|
B--3-3-3-3-3-3-3-3--3-3-3-3-3-3-3-3---2-2-2-2-2-2-2-2--3-3-3-3-3-3-3-3----|
G--2-2-2-2-2-2-2-2--2-2-2-2-2-2-2-2---2-2-2-2-2-2-2-2--0-0-0-0-0-0-0-0----|
D-------------------------------------------------------------------------|
A--2-----------2----0-----------0-----0-----------0----5-----------5------|
D-------------------------------------------------------------------------|

VERSE: 

e-2-------2-------2-------2-----------------------------------------------|
B-----0-------0-------------------0-2---------2-0-2-3-----0---------------|
G-2-------2-------2---2---2---2-------------------------------------------|
D-------------------------------------------------------------------------|
A-2-2-2-2-2-2-2-2-2-2-0-0-0-0-0-0-0-0-0-0-0-0-0-0-0-0-0-0-5-5-5-5-5-------|
D-------------------------------------------------------------------------|




Don't you ever say I just walked away
I will always want you
I can't live a lie, running for my life
I will always want you

e-------------------------------------------------------------------  (---)
B-0---0---0-------0---0---0-----------------------------------------  (-0-)
G-----------2---------------2-----2---2---2-0-----------------------  (-0-)End second time with this
D-------------4---------------4-----------------4-------------------  (-0-)
A-2-2-2-2-2-2-2-2-----------------0-0-0-0-0-0-0-0-0-5-5-5-5-5-5-5---  (-5-)
D-----------------0-0-0-0-0-0-0-0-----------------------------------  (---)


CHORUS:

e-3-3-3-3-3--3---2-2---0--0-0---3-2p0-----3---2-2------------|
B-0-0-0-0-0--3---3-3---0--0-0---0-----3---3---3-3---0--0-0---|
G-0-0-0-0-0--2---2-3---2--2-2---2---------2---0-0---0--0-0---|
D-0-0-0-0-0--0---0-0---2--2-2---2---------0---0-0---0--0-0---|
A-5-5-5-5-5------------0--0-0---0---------2---2-2---5--5-5---|
D------------------------------------------------------------|

e-3-2p0----3---2-2---0--0-0---3-2p0----------3-2-0-3---3-3---|
B-0-----3--3---3-3---0--0-0---0-----3--3---3-3-3-3-0---0-0---|
G-0--------2---2-2---2--2-2---2--------2---2-2-0-0-0---0-0---|
D-0--------0---0-0---2--2-2---2--------0---0-0-0-0-0---0-0---|
A-5------------------0--0-0---0--------2---2-2-2-2-5---5-5---|
D------------------------------------------------------------|

e---------3-2-0-3---
B-3-3---3-3-3-3-0---
G-2-2---2-2-0-0-0---
D-0-0---0-0-0-0-0---
A-2-2---2-2-2-2-5---
D-------------------

REPEAT VERSE AND CHORUS


BRIDGE

I never meant to start a war
I just wanted you to let me in
And instead of using force
I guess I should've let you win
I never meant to start a war
I just wanted you to let me in
I guess I should've let you win

e----------------------3-2-2p--0-----------------3-2-2p--0-------|
B-2---3-----3--3---3---------------2---3-3---3---------------2---|
G---0-0-0---0--0-0-0-0-------------2---2-2-2-2-2-------------2---|
D--------------------------------0-------------------------0-----|
A-----5----5---5-------------2-------2---2-------------0---------|
D-5--------------------------------------------------------------|

e-------------3-2-2p--0--------------------3-2-2p--0-------|
B--3--3---3---3-----------2-----2--3---3---3-----------2---|
G--2--2-2-2-2-------------0-----0--2-2-2-2-------------0---|
D-----------------------0-----0----------------------0-----|
A-0---0----------------------------------------------------|
D-------------------4--------------4-------------5---------|

e--------------3-2-2p--0-------------------3-2-2p--0-----0-----|
B---2--3---3---------------2----3--3---3-------------2---------|
G---0--2-2-2-2-------------2----2--2-2-2-2-------------3---3---|
D-0----------------------0-------------------------------------|
A--------------------2--------0----0---------------------------|
D------5---------------------------------

Wrecking Ball chords – Amber Lawrence

 Wrecking Ball – Amber Lawrence

(if not a barre chord you can play F#7 as x44320 or even xx4320)

[Intro]  Bm  (16)

[Verse 1]
 G (8)
Hey there I think I like you
 G (8)                             Bm (4)
Though you're not typically my kind
 G
But there's something going on here
                                 Bm (4)
That makes me want to change my mind
 A G
I might seem all sweet and nice
 A G G
So this might take you by surprise

[Chorus]

                            Bm
I want your love to be a wrecking ball
                          G
Love me like no one has done before
            Em Bm
Swing the lead, baby wake up the dead
                A A
Let the hammer fall
                           Bm
I want your love to be a wrecking ball
                              G
Go on and clear the way for something more
              G F#7
Three, two, one. Baby here it comes Break down the wall

 Bm

[Verse 2]
 G Bm
My mum won't care for it  But I like your Sailor tattoo
 G
Like Jimmy Dean, you're a wild one
                                Bm
To the wind throws caution I approve
 A G
I've been waiting all my life
 A G
For someone to take me by surprise

[Chorus]
[Bridge:]
 G (8)
            Em (4)                    Bm
Make me scream make me cry Make me feel I might die
            Em F#7  (8)
Make me yearn make me burn Make me feel I'm alive

[Instrumental]  Bm G Em F#7
[Chorus]

https://itunes.apple.com/au/music-video/wrecking-ball/id359521631

(requested by Kate and Emma at Laugh and Learn)

Belle Of The Ball chords – Waylon Jennings V2

 I like to put this song in drop D and use it as a bass note to ring out through the long 
lines of the chorus and verses. Play the G and A like a barre chord without the barre 
and mute the open D.

          D G D 
        A vagabond dreamer, a rhymer and singer of songs
                                G D 
        Singing to no one and nowhere to really belong
                                    G D 
        I met a beautiful lady, a pure Southern belle of the ball
                                    G A 
        Like Scarlet O'Hara loved no one and wanted them all


Chorus:
         G D 
        I'll never forget you and love you inspite of your faults
                                 G D 
        The good and the bad I want to remember it all
                                   G D 
        I did a new dance and you did your Tennessee Waltz
                                   G 
        The party's all over I came uninvited
               D A G 
        I'm leaving and taking the belle of the ball


          D G D 
        There will always be someone I guess that's the way it should be
                                    G D 
        I guess i should know that someone used to be me
                                         G D 
        They'll gather around her soon they'll all look the same
                                      G A 
        At the feet of the lady are lover's without any names


Chorus
         G D 
        I'll never forget you and love you inspite of your faults
                                 G D 
        The good and the bad I want to remember it all
                                   G D 
        I did a new dance and you did your Tennessee Waltz
                                   G 
        The party's all over I came uninvited
               D A G 
        I'm leaving and taking the belle of the ball

Press On Wrecking Ball intro Tabs by Building 429

 Capo 5

e|----------------------------------------------------------------------|
B|----5--3---1---0----------5---3---1---0-------------------------------|
G|----------------------------------------------------------------------|
D|--------------------0-------------------------------------------------|
A|--3---2---2---2---h2-----3---2---2---2--------------------------------|
E|----------------------------------------------------------------------|

e|----------------------------------------------------------------------|
B|----5--3---1---0----------5---3---1---0-------------------------------|
G|----------------------------------------------------------------------|
D|--------------------0-------------------------------------------------|
A|--3---2---2---2---h2-----3---2---2---2--------------------------------|
E|----------------------------------------------------------------------|

Keane – Crystal Ball Chords

Intro  Gb ,  Db ,  Ebm ,  Bbm ,  Ab Gb ,  Db ,  Ebm Am Bbm Gb  
Who is the man I see 
 Am Bbm Gb   
Where I'm supposed to be? 
 Ab Bbm Gb Ebm  
I lost my heart, I buried it too deep 
 Ab Bbm Ebm  
Under the iron sea				

 Gb Db Ebm  
Oh, crystal ball, crystal ball 
              Bbm  
Save us all, tell me life is beautiful 
 Gb Db Ebm  
Mirror, mirror on the wall 

 Ab Bbm Gb  
Lines ever more unclear 
 Ab Bbm Gb  
I'm not sure I'm even here 
 Ab Bbm Gb Ebm    
The more I look the more I think that I'm 
 Ab Bbm Ebm    
Starting to disappear 
		
 Gb Db Ebm   
Oh, crystal ball, crystal ball 
              Bbm  
Save us all, tell me life is beautiful 
 Gb Db Ebm  
Mirror, mirror on the wall 
 Gb Db Ebm  
Oh, crystal ball, hear my song 
                 Bbm  
I'm fading out, everything I know is wrong 
 Gb Db Ebm  
So put me where I belong 

   Ab Db  
I don't where I am 
     Ebm Ab  
And I don't really care 
   F Bbm    
I look myself in eye 
         Gb Db Ebm   
There's no-one there 
   Ab Db  
I fall upon the earth 
   Ebm Ab  
I call upon the air 
     Fm Bbm Gb Db Ebm    
But all I get is the same old va-cant stare 			

 Gb Db Ebm   
Oh, crystal ball, crystal ball 
              Bbm  
Save us all, tell me life is beautiful 
 Gb Db Ebm  
Mirror, mirror on the wall 
 Gb Db Ebm  
Oh, crystal ball, hear my song 
                 Bbm  
I'm fading out, everything I know is wrong 
 Gb Db Ebm  
So put me where I belong