Tag: band

Sort Of A Protest Song chords – Matthew Good Band

 Matthew Good Band
Sort Of A Protest Song
The Audio Of Being
2001
half step down - capo 1

This is the bare bones of the acoustic version he plays live.
 C      x32010
 G      320033
 Am     x02210   play around with b string
 C/B    x20010
GaddA 320035

 C G Am C/B C C/B Am C C/B Am C G 
I can't remember 1989
 Am C/B 
I can't remember what you look like
         C C/B Am 
Because I was dime'd
             C C/B Am 
Wasn't the whole world at the time?

 C G 
A robot heart for my sleep in
 Am C/B 
Girl she knows CPR
   C C/B Am 
so I can come back to life
       C C/B Am 
Yeah, I can come back to life


      C         GaddA                 Am            GaddA
I'm tired of walking around with my hand on my gun
      C         GaddA                         Am            GaddA
I'm tired of watching them wind you up to see if you'll run
      C         GaddA             Am            GaddA
Tonight I'm going to go out and have me some fun
      C         GaddA                     Am            GaddA
I'm tired of walking around here with my hand on my gun

 C G Am C/B C C/B Am C C/B Am C G 
I had me a vision
 Am C/B 
I was a fireman
      C C/B Am 
In a time of fires
      C C/B Am 
And I was paralyzed

   C G 
A robot heart
        Am C/B 
For a theme park world
     C C/B Am 
Whatever keeps us alive
     C C/B Am 
Whatever keeps claim to us being civilized

      C         GaddA                 Am            GaddA
I'm tired of walking around with my hand on my gun
      C         GaddA                         Am            GaddA
I'm tired of watching them wind you up to see if you'll run
      C         GaddA             Am            GaddA
Tonight I'm going to go out and have me some fun
      C         GaddA                     Am            GaddA
I'm tired of walking around here with my hand on my gun

 Am C/B C 
Yeah Yeah Yeah
 Am C/B C 
Yeah Yeah Yeah

 C G 
I can't remember 1989
   Am C/B 
I try, but I forget what you look like
      C C/B Am 
Baby I ain't dime'd
      C C/B Am 
But yeah, it still keeps me up at night

    C G 
A robot heart
    Am C/B 
For a robot boy
     C C/B Am 
Who dreamed he was a lion
      C C/B Am 
Our lives in these empty spaces aside

      C         GaddA                 Am            GaddA
I'm tired of walking around with my hand on my gun
      C         GaddA                         Am            GaddA
I'm tired of watching them wind you up to see if you'll run
      C         

Highway 20 Ride chords – Zac Brown Band V5

 Highway 20 Ride  by Zac Brown Band
Capo 3

Intro
 C F C C G C Cadd9 C F C 
I ride east every other Friday, and if I had it my way
    Cadd9 G C 
My day would not be wasted on this drive
   Cadd9 C F C 
I want so bad to hold you, but son there's things I haven't told you
      Cadd9 C G 
Your mom and me just couldn't get along

      C F G 
So I drive, and I think about my life,
            C F G 
And wonder why, that I slowly die inside
      C Cmaj7 Am F G 
Every time I turn that truck around, right at the Georgia line
             C Cmaj7 Am F G C 
I count the days, and the miles back home to you, on that Highway 20 ride.

 C F C C G C Cadd9 C F C 
A day might come you'll realize, and if you see through my eyes
       Cadd9 G C 
There was no other way to work it out
       Cadd9 C F C 
And a part of you might hate me, but son please don't mistake me
       Cadd9 C G 
For a man who didn't care at all.

        C F G 
And I drive, and I think about my life,
            C F G 
And wonder why, that I slowly die inside
      C Cmaj7 Am F G 
Every time I turn that truck around, right at the Georgia line
                 C Cmaj7 Am F G C 
And I count the days, and the miles back home to you, on that Highway 20 ride.

 C F C C G C C F G 
So when you drive, and the years go flying by
               C F G 
I hope you'll smile, if I ever cross your mind
             F G F G 
It was the pleasure of my life, and I cherished every time
              C Cmaj7 Am F 
And my whole world, it begins and ends with you
         G C 
On that Highway 20 Ride.
 F G C 
On that Highway 20 Ride.  (repeat to fade)

Signs chords – Five Man Electrical Band V3

 D C Bm A G 
And the sign said long haired, freaky people, need not apply.

         D A G A 
So I tucked my hair up under my hat and I went in and asked him why?

 Bm G  
He said, you look like a fine, upstanding young man, I think you`ll do.

         D A G A 
So, I took off my hat, said, imagine that..huh, me, workin' for you.

- - -

 D C G                                   
Signs, signs, everywhere signs, 

 D G 
Blocking out the scenery, breaking my mind.

 D A                    
Do this, don't do that..

                              C 
Can’t you read the signs?

- - -

 D C Bm A G 
And the sign said anybody caught trespassing will be shot on sight.

         D A 
So I jumped on the fence and yelled at the house

           G A 
“Hey, what gives you the right?”

 Bm G 
You put up a fence to keep me out or to keep mother nature in.
 
 D A G A 
If God were here, He’d tell you to your face, Man, you’re some kind a sinner.

- - -

 D C G                                   
Signs, signs, everywhere signs, 

 D G 
Blocking out the scenery, breaking my mind.

 D A                    
Do this, don`t do that..

                               C 
Can’t you read the signs?

- - -

OH
      A 
I said now mister, can’t you read,

          G D 
You got to have a shirt and tie to get a seat.

  D A                               
You can’t even watch, no, you can’t eat, 

  G D 
you ain’t supposed to be here  . . here.

                                                                                             D 
And the sign says you got to have a membership card to get inside..unnh!

 D C G D G D A C 

- - -

 D C Bm A G 
And the sign said, everybody welcome, come in, kneel down and pray.

       D A          
And they passed around a plate at the end of it all,

      G A  
And I didn`t have a penny to pay.

 Bm G    
So I got me a pen and a paper and I made up my own little sign.

     D A G A  
It said, thank you Lord for thinkin’ ‘bout me, I’m alive and doing fine.
- - -


 D C G                                   
Signs, signs, everywhere signs, 

 D G 
Blocking out the scenery, breaking my mind.

 D A                    
Do this, don't do that..

                              C 
Can’t you read the signs?

- - -


 D C G                                   
Signs, signs, everywhere signs, 

 D G 
Blocking out the scenery, breaking my mind.

 D A                    
Do this, don't do that..

                              C 
Can’t you read the signs?


 D C D G D A C

Worthy The Lamb chords – Gaither Vocal Band

 Worthy The Lamb
 D G D 
Hear the cries of the shackled, from the onset of time
           Bm E C 
From the chains of defeat, there’s no key
           D G D 
See the tears of the broken, and the cries of the slaves
                    A D 
Is there no-one, worthy, to set us free?
           A D A 
And the crying is stilled, as the chorus rings out
         FM B BM 
The shackled released from their chains
       A D A 
And thousands of voices, are swelling the song
 A E A 
Worthy The Lamb, that was slain

CHORUS:
  A D E Asus A 
Worthy, Worthy, Worthy The Lamb that was slain
 A D E Asus A   
Worthy, Worthy, Worthy The Lamb that was slain

       D G D 
Then all the archangels, the saints of all time
 BM E EM 
Holding their crowns in their hands
 D AM7 G D 
Fall down before Him, joining the song
          A7 D 
Worthy, worthy The Lamb

CHORUS #2
 G C D G 
Worthy, Worthy, Worthy The Lamb that was slain
 G C D G E 
Worthy, Worthy, Worthy The Lamb that was slain

 A D E A 
Praise Him, Praise Him, Praise the Lamb that was slain.

Band On The Run Tabs by Paul Mccartney V4

 -------------------------------------------------------------------------------
                             Band On The Run - Paul McCartney & Wings
-------------------------------------------------------------------------------
: Spiketheferret
Tuning: Standard

This is how I play the song, sounds amazing on acoustic and pretty slick on a 
lightly over-driven electric as well.


e|--10/12\10--5/7\5--2--5h7p5h7p5h7p5h7p5h7p5h7p5h7------------3h5p3h5p3h5p3h5p3h5p3h5p3h5--|
B|--10/12\10--5/7\5--2--7----------------------------7/8p7--5--3----------------------------|
G|-------------------2--6---------------------------------7-4--4----------------------------|
D|----------------------------------------------------------4--4----------------------------|
A|----------------------------------------------------------0-------------------------------|
E|----------------------------------------------------------3-------------------------------|

e|--10/12\10--5/7\5--2--5h7p5h7p5h7p5h7p5h7p5h7p5h7------------3h5p3h5p3h5p3h5p3h5p3h5p3h5--|
B|--10/12\10--5/7\5--2--7----------------------------7/8p7--5--3----------------------------|
G|-------------------2--6---------------------------------7-4--4----------------------------|
D|----------------------------------------------------------4--4----------------------------|
A|----------------------------------------------------------0-------------------------------|
E|----------------------------------------------------------3-------------------------------|

e|--0-0\0-0\0---3----0-0\0-0\0-0--3--2h3p2-------------|
B|--8-7\5-5\3--3-----8-7\5-5\3-3-3---2-----------------|
G|--7-6\4-4\2--3-----7-6\4-4\2-2-3---2-----------------|
D|--0-0\0-0\0--2-----0-0\0-0\0-0-2---------------------|
A|-------------x-----------------x---------------------|
E|-------------3-----------------3---------------------|

    Stuck inside these four walls  
e|--2----------------------------5h7p5h7p5h7p5h7p5h7p5h7p5h7-----------------|
B|--2----------------------------7-------------------------------------------|
G|--2----------------------------6-------------------------------------------|
D|---------------------------------------------------------------------------|
A|---------------------------------------------------------------------------|
E|---------------------------------------------------------------------------|

    Sent inside forever
e|---------------------3h5p3h5p3h5p3h5p3h5p3h5p3h5---------------------------|
B|--5------------------3-----------------------------------------------------|
G|--4------------------4-----------------------------------------------------|
D|--4------------------4-----------------------------------------------------|
A|--0------------------------------------------------------------------------|
E|--3------------------------------------------------------------------------|

    Never    seeing     no    one  
e|--2----------------------------5h7p5h7p5h7p5h7p5h7p5h7p5h7-----------------|
B|--2----------------------------7-------------------------------------------|
G|--2----------------------------6-------------------------------------------|
D|---------------------------------------------------------------------------|
A|---------------------------------------------------------------------------|
E|---------------------------------------------------------------------------|

    Nice          again    
e|---------------------3h5p3h5p3h5p3h5p3h5p3h5p3h5---------------------------|
B|--5------------------3-----------------------------------------------------|
G|--4------------------4-----------------------------------------------------|
D|--4------------------4-----------------------------------------------------|
A|--0------------------------------------------------------------------------|
E|--3------------------------------------------------------------------------|

    Like you    Mama   you.    Mama   y

Yahweh chords – Desperation Band V3

 YAHWEH

Intro:  G#m - F# - B - E 

Verse 1:
  G#m F# 
 From the first break of light, to last days
 B E G#m 
 Every echo of time, every evening fade
           F# B E 
 You've always been there

Verse 2:
  G#m F# 
 From the baby's first cry to last breath
 B E G#m 
 Every fight in our minds, every victory dance
            F# B E 
 You've always been there

Pre-Chorus:
  G#m F# B E G#m 
 Ancient One, so amazing, unfailing, You are
         F# E B 
 Holy One, overwhelming my heart with Your love

Chorus:
       F# G#m E B 
 Yahweh, Yahweh, Faithful God You're here to stay
     F# G#m E B     ( G#m - F# - B - E )
 Yahweh, Yahweh, forever and always the same

Verse 3:
  G#m F# 
 Where the sky meets the sea and breaks free
 B E G#m 
 When compassion and love are met with need
            F# B E 
 You've always been there

Bridge:
  G#m E 
 All consuming, Everlasting
  B F# 
 GOD Almighty, LORD of Glory

Wichita Jail chords – Charlie Daniels Band

 SONG:   WICHITA JAIL
ARTIST: THE CHARLIE DANIELS BAND
TAB BY: DON CZARSKI
EMAIL:  GUITARZAN7@HOTMAIL.COM

                 WICHITA JAIL
           THE CHARLIE DANIELS BAND


INTRO:   E A B E 


VERSE:
 Em E 
I woke up on a cement floor this mornin,
     Em E 
My head felt like somebody been walkin' on it,
   A 
Don't know how I got here,
          E 
Don't remember nothin' at all,
     F# 
But if I done all the things that they say I did,
         B 
Well I sure musta had a ball


CHORUS:
           A 
Cause in 30 more days

I'm goin back home,
     E 
To see that gal of mine,
          B 
But the Wichita Jail
       B 
Is a long long way
                         Dbm 
From the Tupelo County line,
                B 
I gotta do my time


VERSE:
         Em 
Well I aint got a cent of the money I had
     E 
I spent it
   Em E 
Shirts tore, my shoes got a big hole in it,
            A 
There's a king size knot on the side of my head
        E 
And I got one big black eye
       F# 
But brother if you think I look bad,
              B 
You oughtta see that other guy


CHORUS:
           A 
Cause in 30 more days

I'm goin back home,
     E 
To see that gal of mine,
          B 
But the Wichita Jail
       B 
Is a long long way
                         Dbm 
From the Tupelo County line,
                B 
I gotta do my time


INSTRUMENTAL:
 E A B E A E F# B A E B B Dbm B 


VERSE:
            Em E 
Well this nine pound hammer feels like it weighs a ton
        Em E 
Makin lil ones outta big ones in this red hot Kansas sun
         A 
I just hope I can make it 30 more days
      E 
And get out of this mess I'm in,
     F# 
And if I ever get back to Mississippi
    B 
I aint ever gonna leave again


CHORUS:
           A 
Cause in 30 more days

I'm goin back home,
     E 
To see that gal of mine,
          B 
But the Wichita Jail
       B 
Is a long long way
                         Dbm 
From the Tupelo County line,


OUTRO:
                B 
I gotta do my time
                Dbm 
I gotta do my time
                B 
I gotta do my time

 E A B E A E

Im On Fire Tabs by Dwight Twilley Band

 -------------------------------------------------------------------------------
                        I'M ON FIRE - Dwight Twilley Band
-------------------------------------------------------------------------------

Tuning: Standard E-A-D-G-B-E

There are a couple of riffs missing near the end that I may add later, 
but this tab provides a good playing version.


e|---------------------------------------------------------------------------|
B|--/8--/8--7--5-------------------------------------------------------------|
G|--/9--/9--9--7--7--5-------------------------------------------------------|
D|----------------9--7--7------------------------------------2---------------|
A|----------------------9------7--7--5-----------------2--4-----4--2---------|
E|--------------------------------------7--5--2--0--0------------------------|


           E
e|---------------------------------------------------------------------------|
B|---------------------------------------------------------------------------|
G|---------------------------------------------------------------------------|
D|--------------------------------------------2--2---------------------------|
A|---------------------2--4--------------2--4-------4--3--2------------------|
E|---------0--0--3--4---------0--0--3--4---------------------4---------------|
  Got your lady on the line


e|---------------------------------------------------------------------------|
B|---------------------------------------------------------------------------|
B|---------------------------------------------------------------------------|
G|---------------------------------------------------------------------------|
D|--------------------------------------------2--2---------------------------|
A|---------------------2--4--------------2--4-------4--3--2------------------|
E|---------0--0--3--4---------0--0--3--4---------------------4---------------|
  Got your name on the cover

              
e|---------------------------------------------------------------------------|
B|---------------------------------------------------------------------------|
G|---------------------------------------------------------------------------|
D|----------------------------2---4-----------------2--4---------------------|
A|------------0---0---3---4-------------0--0--3--4---------------------------|
E|---------------------------------------------------------------------------|
  Though your friends are ninety-nine

        E
e|---------------------------------------------------------------------------|
B|---------------------------------------------------------------------------|
G|---------------------------------------------------------------------------|
D|---------------------------------------------------------------------------|
A|--------------------------2---4--------------------------------------------|
E|----------0---0---3---4----------------------------------------------------|
  Honey you ain't got not lover

      A                                   E
e|---------------------------------------------------------------------------|
B|---------------------------------------------------------------------------|
G|---------------------------------------------------------------------------|
D|-----------------------------------------------------------2--2------------|
A|-----------------------------------------------------2--4--------4--3--2---|
E|-----------------------------------------0--0--3--4-----------------------4|
  And you ain't you ain't you ain't got no lover

      A                                   E
e|-----------------------------------------/10--/10---9--7--5--3-------------|
B|-----------------------------------------/12--/12--10--8--7--5-------------|
G|---------------------------------------------------------------------------|
D|---------------------------------------------------------------------------|
A|---

The Band With No Name Tabs by Ten Years After

 ---------------------------------------------------------------------------
                  THE BAND WITH NO NAME – Ten Years After
                                (Alvin Lee)
                                Watt [1970]
---------------------------------------------------------------------------

: varannion
Email:     dm_hughes1@hotmail.com

Tuning: standard

'The Band With No Name' is a short (1:36) guitar instrumental comprising 36 
bars: a 4-bar intro and two 8-bar themes, both of which are repeated. Think 
of it as an Alvin Lee meets Ennio Morricone piece. It certainly wouldn't be 
out of place on the soundtrack of a Sergio Leone spaghetti western or even a 
Quentin Tarantino movie.




    12-string acoustic guitar
      Dm
e|----------------------------|--------------------------|
B|----------5--6--5--6--------|--------5--6--5--6--------|
G|-------7--------------7-----|-----7--------------7-----|
D|----7--------------------7--|--7--------------------7--|
A|----------------------------|--------------------------|
E|----------------------------|--------------------------|



      Dm
e|----------------------------|--------------------------|
B|----------5--6--5--6--------|--------5--6--5--6--------|
G|-------7--------------7-----|-----7--------------7-----|
D|----7--------------------7--|--7--------------------7--|
A|----------------------------|--------------------------|
E|----------------------------|--------------------------|
 |  6-string electric guitar w/heavy tremolo
e|----------------------------|--------------------------|
B|----------------------------|--------------------------|
G|----------------------------|--------------------------|
D|----------------------------|--------------------0--2--|
A|----------------------------|-----------------0--------|
E|----------------------------|--------------------------|



      F                          C
e|----------------------------|--------------------------|
B|----------5--6--5--6--------|--------3--5--3--5--------|
G|-------7--------------7-----|-----5--------------5-----|
D|----7--------------------7--|--5--------------------5--|
A|----------------------------|--------------------------|
E|----------------------------|--------------------------|
 |
e|----------------------------|--------------------------|
B|----------------------------|--------------------------|
G|----------------------0-----|--------------------------|
D|----3--------------------3--|--2--0--------------------|
A|----------------------------|--------3--------------0--|
E|----------------------------|--------------------------|



     Dm
e|----------------------------|--------------------------|
B|----------5--6--5--6--------|--------5--6--5--6--------|
G|-------7--------------7-----|-----7--------------7-----|
D|----7--------------------7--|--7--------------------7--|
A|----------------------------|--------------------------|
E|----------------------------|--------------------------|
 |
e|----------------------------|--------------------------|
B|----------------------------|--------------------------|
G|----------------------------|--------------------------|
D|----0-----------------------|--------------------0--2--|
A|----------------------------|-----------------0--------|
E|----------------------------|--------------------------|



      F                          C
e|----------------------------|--------------------------|
B|----------5--6--5--6--------|--------3--5--3--5--------|
G|-------7--------------7-----|-----5--------------5-----|
D|----7--------------------7--|--5--------------------5--|
A|----------------------------|--------------------------|
E|----------------------------|--------------------------|
 |
e|----------------------------|--------------------------|
B|----------------------------|--------------------------|
G|----------------------0-----|----------------

Three Band Terror chords – Linkin Park

 D G 
We swim against the rising waves and crash against the shore
     D G D 
The body bends until it breaks, the early morning sings no more

    D G 
We swim against the rising waves and crash against the shore
     D G                   
The body bends until it breaks, then sings again no more
     A G D 
The winds have torn the flesh away, the early morning sings no more

    D G 
We swim against the rising waves and crash against the shore
     D G 
The body bends until it breaks, then sings again no more
     A G D 
The winds have torn the flesh away, the early morning sings no more

        A G D 
'Cause time has torn the flesh away, the early morning sings no more

Behold A Pale Horse chords – Charlie Daniels Band

 SONG:   BEHOLD A PALE HORSE
ARTIST: THE CHARLIE DANIELS BAND
TAB BY: DON CZARSKI
EMAIL:  GUITARZAN7@HOTMAIL.COM

           BEHOLD A PALE HORSE
         THE CHARLIE DANIELS BAND

INTRO:  Dm 

VERSE: 
  Dm 
There was a mighty nation

Blessed above all of creation
           C 
It was a rare and precious pearl
               Bb 
Conceived in faith and liberty
               C 
Home of the brave, land of the free
          Dm 
Was the envy of the world


VERSE:
            Dm 
But this shining city on the hill

Has turned from the creators will
          C 
And let evil take control
          Bb 
Now the reckless men who lead them
           C 
Want to strip away their freedom
         Dm 
And to steal their very soul


VERSE:
           Dm 
Now it's smoke and mirrors

Switchin' bait

Criticize and confiscate
              C 
And let the guilty walk away
                Bb 
In this much righteous Godly nation
          C                         
In the halls of education 
         Dm 
They forbid a child to pray


VERSE:
      Dm 
They say we need to spread the wealth
                                          
They pretend to guard the health 
          C 
Of the feeble and the poor
            Bb                           
While the hand they hold behind their back
     C 
Confuses and conceals the fact
           Dm 
That the wolf is at the door


CHORUS:
  Dm Bb 
There's an unseen hand
       C Dm 
That pulls the string
        C 
That makes his little puppets dance
                   Dm 
To every song he sings
                    Bb C Dm 
As the night rolls in on a rising tide
  C A 
Look beyond the shadows
                      Dm 
Behold a pale horse rides


VERSE:
      Dm 
They claim to seek a New World Order

Nations without borders
      C 
But don't believe the lies
      Bb 
Even in this wealthy nation
              C 
It can come down to starvation
         Dm 
In the twinkling of an eye


VERSE:
       Dm 
They tell us there will soon be peace

Our lives will be an endless speech
       C 
But they lead us toward the darkness
         Bb 
In the distance sabres rattle
          C 
And the armies train for battle
         Dm 
As the beast prepares his mark


CHORUS:
  Dm Bb 
There's an unseen hand
       C Dm 
That pulls the string
       C 
And makes his little puppets dance
                 Dm 
To any song he sings
                    Bb C Dm 
As the night rolls in on the rising tide
  C A 
Look beyond the shadows
                      Dm 
Behold a pale horse rides


INSTRUMENTAL: 
 Dm C Bb A Dm 


VERSE:
       Dm 
It's time for every righteous man

To step up tall and take a stand
   C 
There is so little time
            Bb 
For if we fear and hesitate
          C 
Soon it will be too late
           Dm 
With the last hope of mankind


VERSE:
       Dm 
Time hurries on the shadows fall

The hand writing is on the wall
      C 
But even now there's still a chance
             Bb 

My Rest chords – The Mvmnt Band

 Soooo this song is not very well known seeing as you can google it and it doesn't come 
up and youtube it with just as much success but they have a Facebook page! But this is my 
favorite song by them.
These are chords that my youth group's worship leader has, so any need for correction 
isn't my fault ;)

Chorus:
 G 
I run to You
 C 
And I fall at Your feet
     Em G D C 
Oh Father, in You I find my rest

Verse:
 C G 
I hold on to hope
 Em D C 
You told me You'd never let go
 C G 
I stir up my faith
        Em D C 
I remember Your promise each day
 C G 
And I lift my hands
    Em D C 
I embrace all Your love Lord as much as I can

Prechorus:
           C Em D 
And I'll never be the same as before  x2

Chorus

Verse

Prechorus

Chorus

Crush chords – Dave Matthews Band V3

 Crush by Dave Matthews Band
    Bm GM7 D DM7 G G4 G/A Am7 C G/B E D E C E F9 G C G E 
E|---------------------------------------------|-----------------|----------------------|
B|--3---3---2---2------------------------------|-----------------|----------------------|
G|--4---0---3---2---4---5---4---5---5---4---4--|--7---9---5---4--|--12--12--12--12---4--|
D|--4---4---0---0---5---5---5---5---5---5---2--|--7---9---5---2--|--10--12--10---9---2--|
A|--2---2---x---x---x---x---x---x---3---2---2--|--5---7---3---2--|---8--10--10--10---2--|
E|----------2---2---3---3---5---5-----------0--|--------------0--|-------------------0--|

 Bm Bm GM7 D DM7 G G4 G/A Am7 C G/B Bm 
Crazy how it feels tonight Crazy how you  make it all alright, love 
        GM7 D DM7 G G4 G/A Am7 C G/B Bm 
Crush me   with the things you do And I'd do   for you     anything too, oh 
         GM7 D DM7 G G4 G/A Am7 C E   
Sitting, smoking, feeling high And in this moment,   oh, it feels so right
 D E C E 
Lovely lady, I am at your feet Oh, God, I want you so badly
 D E C Bm 
And I wonder this could tomorrow be So wondrous as you there sleeping
         GM7 D DM7 G G4 G/A Am7 C G/B Bm 
Let's go  drive 'til morning comes Watch the sunrise   and fill our souls up 
                 GM7 D DM7 
We'll drink some   wine 'til  we get drunk, yeah 
     F9 G C G F9 G C        
Its crazy Im thinking Just knowing that the world is round Im here Im dancing  
 G F9 G C G F9 G C E 
on the ground am I right side up or upside down And is this real O am dreamin
 D E C E 
Lovely lady, let me drink you, please Won't spill a drop, no, I promise you 
 D E C Bm 
Lying under this spell you cast on me Each moment the more I love you 
         GM7 D DM7 
Crush me, come on, oh, yeah
     F9 G C G F9 G C        
Its crazy Im thinking Just knowing that the world is round Im here Im dancing  
 G F9 G C G F9 G C E 
on the ground am I right side up or upside down And is this real O am dreamin
 D E C E 
Lovely lady, I will treat you sweetly Adore you, I mean you crush me 
 D E C Bm 
And it's times like these When my faith, I feel it I know how I love you 
         GM7 D DM7 
Come on,   come on, baby
      F9 G C G F9 G  
It's crazy I'm thinking Just as long as you're a

Ants Marching solo Tabs by Dave Matthews Band

 -------------------------------------------------------------------------------
                             Ants Marching - Dave Matthews Band
                              ( carter sax solo for guitar)
-------------------------------------------------------------------------------
: Greg Reo
 gregdreo@earthlink.net

Tuning: Standard

e|--12---10----15--14---14h15p14--12----15p14--15p14--12--10--14---12----------|
B|-----------------------------------------------------------------------------|
G|-----------------------------------------------------------------------------|
D|-----------------------------------------------------------------------------|
A|-----------------------------------------------------------------------------|
E|-----------------------------------------------------------------------------|

e|--12--12p10--12p10-------------------------10h12--10h12--10h12---------------|
B|-----------------------10h12p10--12--12--------------------------------------|
G|-----------------------------------------------------------------------------|
D|-----------------------------------------------------------------------------|
A|-----------------------------------------------------------------------------|
E|-----------------------------------------------------------------------------|

e|--10--12--10--8--10--12--14--12-----14--12--10--12---------------------------|
B|-----------------------------------------------------------------------------|
G|-----------------------------------------------------------------------------|
D|-----------------------------------------------------------------------------|
A|-----------------------------------------------------------------------------|
E|-----------------------------------------------------------------------------|

e|--14--15--17--15--14--12--9--10----------------------------------------------|
B|-----------------------------------------------------------------------------|
G|-----------------------------------------------------------------------------|
D|-----------------------------------------------------------------------------|
A|-----------------------------------------------------------------------------|
E|-----------------------------------------------------------------------------|



************************************

| /   slide up
| \   slide down
| h   hammer-on
| p   pull-off
| ~   vibrato
| +   harmonic
| x   Mute note
| b   Bend
| pb  Pre-bend
| br  Bend release
| pbr Pre-bend release
| brb Bend release bend

************************************

Rooftops chords – Desperation Band

 “Rooftops”
Desperation Band

Intro:
E-------------------------------------|
B-------------------------------------|
G-------------------------------------|
D-------------------------------------|
A----------------------------5-4-2-0-0|
E-5-5-555-0-00-0000-2-2-222-----------|

 A E F#m D 
(repeat 3x's)

Verse:
 A E F#m 
I was lost, I was afraid until You found me
                         D - C# - B - A - E 
And You took me by the hand
 A E F#m 
I was bound, I was in chains Until You came
                           D - C# - B - A - E 
and set me free to dance again
 E D 
Now I'm screaming at the top of my lungs

Chorus:
          A E F#m D 
You are good I know, I will shout it from the rooftops
          A E F#m G 
You are good I know, That Your love will go forever
          A 
You are good

Bridge:
 E F#m7                              
I was blind but now I see From the rooftops I will 
 E 
sing
                        F#m7 
I was bound but now I'm free 

Whatever It Is chords – Zac Brown Band V3

 C G/B Am G F          
e|--0----3----0---3---1-|
B|--1----3----1---3---1-|
G|--0----0----2---0---2-|
D|--2----0----2---0---3-|
A|--3----2----0---2---3-|
E|--x----x----x---3---1-|

FILL
e|------------+12--------|
B|---------+12---13------|
G|------+12--------+12---|
D|---+12-----------------|
A|-----------------------|
E|-----------------------|


Tuning:Standard (capo 1st fret)

Intro:  C  -  G/B  -  Am  -  G  -  F  -  G  -  C  -  F  -  G/B  


Verse 1:
           C G/B                   
She got eyes that cut you like a knife and 
   Am G         
lips that taste like sweet red wine 
        F G C F  -  G/B 
And pretty legs go to heaven every time 
          C G/B 
She got a gentle way that puts me at ease 
       Am G 
When she walks in the room I can hardly breathe
      F G C F  -  G/B 
Got a devastating smile knock a grown man to his knees 


Chorus:
   F G 
She got whatever it is 
               C  -  G/B  -  Am  -  G  
It blows me away .................
   F G 
She's everything I wanted to say to a woman 
     F G 
but couldn't find the words to say 
    F G 
She got whatever it is 
                      C  -  G/B  -  Am  -  G  
I don't know what to do............ 
   F G 
Cause every time I try and tell her how I feel 
 ( F )                  ( G )
it comes out "I love you"  
(FILL)
You got whatever it is 

Interlude:  C  -  G/B  -  Am  -  G  -  F  -  G  -  C  -  F  -  G/B 

Verse 2:
   C G/B                              
You know I've never been the type that would ever want to stay
          Am G  
Bring 'em home at night and they're gone the next day 
    F G C F  -  G/B 
But that all changed when she walked into my life
     C G/B    
And people askin why it is I tell them I don't know 
       Am G F 
Just something about the woman makes my heart go haywire 
     G C F  -  G/B 
And she's gonna be my wife 

Chorus:
   F G 
She got whatever it is 
               C  -  G/B  -  Am  -  G  
It blows me away .................
   F G 
She's everything I wanted to say to a woman 
     F G 
but couldn't find the words to say 
    F G 
She got whatever it is 
                      C  -  G/B  -  Am  -  G  
I don't know what to do............ 
   F G 
Cause every time I try and tell her how I feel 
 ( F )                  ( G )
it comes out "I love you"  
(FILL)
You got whatever it is 

2X Interlude:  C  -  G/B  -  Am  -  G  -  F  -  G  -  C  -  F  -  G/B 

Bridge:
               C G/B Am G  
Caus

Worthy Worthy chords Vtical Church Band

 *Sorry if the chords are not in the right place exactly. They were prior to the 
upload, but you'll probably see them all messed up. But they should be relatively close. 

|  C  |  D  |  C  |  D  |

                  C G D 
No pen or quill, no scribe in perfect skill
                       C G D 
With flawless words could capture all You are
              C G D 
No lofty thought, no scholar of this world
                          C G D 
Could grasp an inch of such infinity

                 Am G D 
Though we cannot comprehend such a mystery
         Am G D 
Just a glimpse of You revealed is compelling us to sing

 D C G   
Holy, holy is the Lord God almighty
 D C 
Worthy, worthy is Your Name
          D C G   
All of Heaven joins the universe ever crying
 D C 
Worthy, worthy is Your name

                      C G D 
With hearts amazed and songs that never frame
                     C G D 
The fullness of your worth and majesty
                  C G D 
We come again and fall on bended knee
                  C G D 
And here adore the God that we don't see

                 Am G D 
Though we cannot comprehend such a mystery
         Am G D 
Just a glimpse of You revealed is compelling us to sing


 D C G   
Holy, holy is the Lord God almighty
 D C 
Worthy, worthy is Your Name
          D C G   
All of Heaven joins the universe ever crying
 D C 
Worthy, worthy is Your name 

 D C G   
Holy, holy is the Lord God almighty
 D C 
Worthy, worthy is Your Name
          D C G   
All of Heaven joins the universe ever crying
 D C 
Worthy, worthy is Your name 

 Am G D Am G D 
Yeah,              Worthy is Your name Jesus

                      C G D 
When You return, we'll hear the trumpet sound
                       C G D 
You'll lead us home riding on the clouds
                        C G D 
Where we will stand and sing forevermore
                               C G D 
The honor and the praise, the glory is the Lord's

 D C G   
Holy, holy is the Lord God almighty
 D C 
Worthy, worthy is Your Name
          D C G   
All of Heaven joins the universe ever crying
 D C 
Worthy, worthy is Your name 

 D C G   
Holy, holy is the Lord God almighty
 D C 
Worthy, worthy is Your Name
          D C G   
All of Heaven joins the universe ever crying
 D C 
Worthy, worthy is Your name 
 D C  
Worthy, worthy is Your name, Jesus
 D C  
Worthy, worthy is Your name

|  C  |  D  |  C  |  

If You Want This Love chords – West Coast Pop Art Experimental Band

 The West Coast Pop Art Experimental Band - If You Want This Love

CAPO IV

 E Em  2x

 Em Am B 
If you want this love of mine
 Em Am B 
treat me gentle and treat me kind
 Em Am 
Don't be mean and don't be bad
            B Em 
and you'll get the truest love that you've ever had

 Em Am B 
If you want my lips to kiss
 Em Am B 
cuddle close and don't resist
 Em Am 
Loving you is all I crave
            B Em 
and if you love me pretty baby I'll be your slave

 Am 
If you want this love of mine
 Em 
baby come on and get it
 Am 
If you should fall in love with me
      B 
I'll bet you will never regret it

 Em Am B 
Not a thing I wouldn't do
 Em Am B 
I'll do anything just for you
 Em Am 
Till I will know that you're really mine
          B Em 
and I'll love you pretty baby till the end of time

 E Em  2x

Solo
 E A F# B E Em  2x

 Em Am B 
If you want this love of mine
 Em Am B 
treat me gentle and treat me kind
 Em Am 
Don't be mean and don't be bad
            B Em 
and you'll get the truest love that you've ever had

 Em Am B 
If you want my lips to kiss
 Em Am B 
cuddle close and don't resist
 Em Am 
Loving you is all I crave
            B Em 
and if you love me pretty baby I'll be your slave

 Am 
If you want this love of mine
 Em 
baby come on and get it
 Am 
If you should fall in love with me
      B 
I'll bet you will never regret it

 Em Am B 
Not a thing I wouldn't do
 Em Am B 
I'll do anything just for you
 Em Am 
Till I will know that you're really mine
          B Em 
and I'll love you pretty baby till the end of time

 E Em  2x

Solo
 E A F# B E Em  2x
 E

How Come chords – The Bonfire Band

  Sam de Brunner
Tuning: Standard
Capo: 2
Chords relative to capo



 G Am Em C G Am Em C D C G G Am Em 
How come you have to advertise if it's good?
 Em C 
Can't you tell?
 G Am 
How come nobody's running
    Em C 
To help me when I yell?
 G Am Em C 
How come it's only the price that makes you sell?
 D C G Em 
How come I can't work out what I should do?
 D C G 
How come nobody listens when it's true?


 G Am 
How come they look suspicious
        Em C 
When I offer it for free?
 G Am 
How come they won't deal
     Em C 
The cards without money?
     G Am Em C 
And how come they only go after three?
     D C 
And how come like the moon
           G Em 
You're so easy shining through?
 D C G 
How come nobody listens when it's true?


 G Am 
How come it's only rivers
      Em C 
That make it out to sea?
 G Am 
How come a streamy nose?
       Em C 
Is it just gravity?
     G Am Em C 
And how come there isn't a force like that on me?
 D C G Em 
How come if there is they don't tell you?
 D C G 
How come nobody listens when it's true?


 G Am 
How come all the faces
    Em C 
Of soldiers are so young?
 G Am 
How come if they were older
 Em C 
They wouldn't be there son?
     G Am 
And how come even a newborn baby's
 Em C 
Frightened by a gun?
 D C G Em 
How come when he looks so much like you?
 D C G 
How come nobody listens when it's true?

Lil Girl chords – The Bonfire Band

  Sam de Brunner
Tuning: Standard
No Capo


 G C C   
I don't need to hold your hand in mine
 G 
To know and feel your touch
 C 
I don't need to hold your hand in mine
 G 
To let you know how much
 C A 
I don't need to tell you where I am
 A D 
Or where it is I'm going to
 Am C 
Oh I don't have to say
 C G 
You know I do


 C 
I don't need to reassure you
 G 
Or make false promises
 C 
I don't need to reassure you
 G 
You know it's all what it is
 C A 
I don't need to reassure you
 A D 
Hold the door, I'll go before you
 Am C 
Oh I don't have to say
 C G 
You know I do

 C 
I don't need to explain myself
 G 
When I get up to go
 C 
I don't need to explain myself
 G 
Somehow I think you know
 C A 
I'll just tell you what you already knew
 A D 
But you were hoping wasn't true
 Am C 
Oh I don't have to say
 C G 
You know I do


 C 
I don't feel I need to pay you back
 G 
What you know I can't afford
 C 
I don't feel I need to pay you back
 G 
When giving's it's own reward
 C A 
I don't need to exact revenge
 A D 
Or say I'll make it up to you
 Am C 
Oh I don't have to say
 G 
You know I do