Tag: bay

Jennifer Jason Leigh – Jim Jones At Botany Bay Tabs

 -------------------------------------------------------------------------------
            Jim Jones at Botany Bay -- "The Hateful Eight" version
-------------------------------------------------------------------------------
: FeynmansZombie

Tuning: half-step down

This is the version of the song played by Daisy (Jennifer Jason Leigh) in Tarantino's movie "The Hateful Eight."
Probably the best scene of the movie. As far as I can tell, it's an original arrangement - I tabbed it by ear
by listening to the soundtrack. This version is more similar to "Skibbereen" than it is to other versions of 
"Jim Jones at Botany Bay." The lyrics are also different in some places (especially the last line).

It's all four chords - stick to them and you can make up your own flourishes if you like. I won't pretend to 
know every note and nuance, but this was basically a live performance so it wouldn't do to be too scripted. For
instance, you could play G with the B string open or 3, or switch it up as you please.

Intro (also a motif that appears in every line):

eb|--------------------------------------------|
Bb|-------0------------------0-----------------|
Gb|----------------0-------------------0-------|
Db|--------------------------------------------|
Ab|-----------0h2-----------------0h2----------|
Eb|--0------------------0----------------------|



1st Verse:


      G                                    Am                Em
eb|---------------------------------------------------------------------------|
Bb|--------3-----------------3------------------1-----------------0-----------|
Gb|-----------------0-----------------0------------------2------------------0-|
Db|---------------------------------------------------------------------------|
Ab|------------------------------1---------0--------0------------------0h2----|
Eb|---3--------3--------3------------------------------------0----------------|

      Listen   for a    moment   lads, and hear me  tell my  tale,



     C                 G                 Am                Em
eb|---------------------------------------------------------------------------|
Bb|-------1-----------------3-----------------1-----------------0-------------|
Gb|----------------0-----------------0-----------------2-----------------0----|
Db|---------------------------------------------------------------------------|
Ab|--3--------3-----------------1--------0--------0-----------------0h2-------|
Eb|--------------------3-----------------------------------0------------------|

 How o'er the sea from England's shore I was con- demned to sail.


                                                       Notice the extra two beats ------
                                                       at the end of some lines.        |
                                                                                        |
                                                                                        |
                                                                                        V
     C                 G                 Am                Em
eb|--------------------------------------------------------------------------------------------|
Bb|-------1-----------------3-----------------1-----------------0------------------0-----------|
Gb|----------------0-----------------0-----------------2-----------------0-------------------0-|
Db|--------------------------------------------------------------------------------------------|
Ab|--3--------3-----------------1--------0--------0-----------------0h2---------------0h2------|
Eb|--------------------3-----------------------------------0-----------------0-----------------|

 The jury     found me "guilty  sir" and said the judge said he,


     Am                Em                 Am                Em
eb|-------------------------------------------------------------------------------------------|
Bb|------1------------------0-----------------1-----------------

Let It Go Tabs – James Bay V4

 -------------------------------------------------------------------------------
                             Let It go - James Bay
-------------------------------------------------------------------------------
: Trond Marius Sørensen
 Trond_Marius_96@hotmail.com

Tuning: It's tuned a half-step down, but the F# string should be tuned a whole step down to F.

D#
A#
F
C#
G#
D#



Intro
                        
|------------------------------------------------------------|
|-----7-----7-----7----/12------12-----12-----12-----12------|
|--------0-----0-----0-------0------0------0------0------0---|
|------------------------------------------------------------|
|-----5----------------/10-----------------------------------|
|------------------------------------------------------------|
      
|------------------------5------5------5---------------------|
|-----7-----7-----7---------------------------8-------7------|
|--------0-----0-----0-------0------0------0------0------0---|
|------------------------------------------------------------|
|------------------------------------------------------------|
|-----7------------------5-----------------------------------|

|------------------------------------------------------------|
|-----7-----7-----7----/12------12-----12-----12-----12------|
|--------0-----0-----0-------0------0------0------0------0---|
|------------------------------------------------------------|
|-----5----------------/10-----------------------------------|
|------------------------------------------------------------|


|------------------------0------0-------0-----0-------0------|
|-----7-----7-----7------------------------------------------|
|--------0-----0-----0-------0------0------0------0------0---|
|------------------------------------------------------------|
|------------------------------------------------------------|
|-----7------------------5-----------------------------------|

Verse

|------------------------------------------------------------|
|-----7-----7-----7----/12------12-----12-----12-----12------|
|--------0-----0-----0-------0------0------0------0------0---|
|------------------------------------------------------------|
|-----5----------------/10-----------------------------------|
|------------------------------------------------------------|
      
|------------------------5------5------5---------------------|
|-----7-----7-----7---------------------------8-------7------|
|--------0-----0-----0-------0------0------0------0------0---|
|------------------------------------------------------------|
|------------------------------------------------------------|
|-----7------------------5-----------------------------------|

|------------------------------------------------------------|
|-----7-----7-----7----/12------12-----12-----12-----12------|
|--------0-----0-----0-------0------0------0------0------0---|
|------------------------------------------------------------|
|-----5----------------/10-----------------------------------|
|------------------------------------------------------------|


|------------------------5------5------5---------------------|
|-----7-----7-----7---------------------------8-------7------|
|--------0-----0-----0-------0------0------0------0------0---|
|------------------------------------------------------------|
|------------------------------------------------------------|
|-----7------------------5-----------------------------------|

|------------------------------------------------------------|
|-----7-----7-----7----/12------12-----12-----12-----12------|
|--------0-----0-----0-------0------0------0------0------0---|
|------------------------------------------------------------|
|-----5----------------/10-----------------------------------|
|------------------------------------------------------------|

|------------------------5------5------5---------------------|
|-----7-----7-----7---------------------------8-------7------|
|----

I Wont Forget You chords – Black Diamond Bay

 Capo 1

Intro:  Bm G D A Bm G D 
I would lace together pretty words
      A Bm              
And tie them about your neck
           G D            
So they sparkle on your face
      A Bm      
And pin such dreams to your clothes
         G D A Bm    
So you can wear them everywhere you go, everywhere you go.

 G D A Bm 
I won’t forget you, I need the pain.

 Bm G D         
I would blend a palette of melodies
  A Bm               
To paint upon your skin
          G D           
So your reflection sings,
      A Bm            
And conduct your very breath
      G D A Bm    
To play along in harmony, to play in harmony.

 G D A Bm 
I won’t forget you, I need the pain.

 Bm G D A Bm 
Yet I am drowning in memories that stick to me like oil
      G D A Bm 
And suck me beneath a sea I would swim so easily
        G D A Bm 
I can lace nothing, I can blend nothing.

 G D A Bm 
I won’t forget you, I need the pain.
 Bm G D 
I couldn't lie
     A Bm                   
I couldn't lie
     G D                   
I looked in your eyes
       A Bm            
And couldn't lie

Let It Go chords – James Bay

 D-tuning, but you can play it with the regular tuning as well. 

Verse + Chorus: 

       D# G# 
|------------------------------------------------------------|
|-----8-----8-----8----/13------13-----13-----13-----13------|
|--------0-----0-----0-------0------0------0------0------0---|
|------------------------------------------------------------|
|-----6----------------/11-----------------------------------|
|------------------------------------------------------------|
      
       Cm B 
|------------------------6------6------6---------------------|
|-----8-----8-----8---------------------------9-------8------|
|--------0-----0-----0-------0------0------0------0------0---|
|------------------------------------------------------------|
|------------------------------------------------------------|
|-----8------------------6-----------------------------------| x infinity

Pre-Chorus:
       Cm B 
|------------------------------------------------------------|
|-----8-----8-----8------8-------8------8------8------8------|
|--------8-----8-----8-------8------8------8------8------8---|
|----10------------------8-----------------------------------|
|------------------------------------------------------------|
|------------------------------------------------------------|

       Am G# 
|------------------------------------------------------------|
|-----8-----8-----8------8-------8------8------8------8------|
|--------8-----8-----8-------8------8------8------8------8---|
|-----7------------------6-----------------------------------|
|------------------------------------------------------------|
|------------------------------------------------------------| x2

From walking home and talking lows
Seeing chirps in evening clothes with you
From nervous touch and getting drunk
To staying up and waking up with you

Now we're slipping near the edge
Holding something we don't need
Oh, this delusion in our heads
Is gonna bring us to our knees

So come on, 
LET IT GO
JUST LET IT BE
Why don't you be you
And I'll be me
And everything that's broke
Leave it to the breeze
Why don't you be you
AND I'LL BE ME
AND I'LL BE ME

From throwing clothes across the floor,
To teeth and clothes and slamming door on you
If this is all we're living for
Why are we doing it, doing it, doing it anymore?

I used to recognize myself
It's funny how reflections change
When we're becoming something else,
I think it's time to walk away

So come on, 
LET IT GO
JUST LET IT BE
Why don't you be you
And I'll be me
And everything that's broke
Leave it to the breeze
Why don't you be you
AND I'LL BE ME
AND I'LL BE ME

Tryina fit your hand inside my mine,
When we know it just don't belong
There's no force on Earth
That could make me feel so wrong
Ooh oh,
Tryina push this problem up the hill
When it's too heavy to hold
I think now is the time to let it slide.

So come on, 
LET IT GO
JUST LET IT BE
Why don't you be you
And I'll be me
And everything that's broke
Leave it to the breeze
Let the ashes fall
And forget about me,
So come on, 
LET IT GO
JUST LET IT BE
Why don't you be you,
And I'll be me?!

AND I'LL BE ME

The Light On The Bay chords – Chris De Burgh

 Chris de Burgh - The Light On The Bay
From the  Moonfleet & Other Stories (2010)
Comment for any corrections and please rate


 Em D        
 Last night, I saw it there,
   C D Em 
Shining in the dark again,
                         D C 
The light that all men seem to fear,
                 D G D C 
They say that sailors were drowning in the bay,
      Am 
And people kept away,
          F Em 
Waiting for the riches that a wreck would bring,
                   D 
When the morning comes,
      C D Em 
And now the ghost of Blackbeard walks again,
     C D Em 
To haunt the ones who would not hear the pain

  D C D Em 
Help me, 
  D C D Em 
Help me...

            D C D Em 
I took the old path down, down to where the graveyard lay,
               D C 
The place I knew when I was young,
                 D G D C 
They say that Blackbeard had hidden precious stones,
   Am 
Amongst the ancient bones,
       F Em 
So I set off to the darkness down below,
                 D 
By the candle glow,
         C D Em 
T'was then I heard the voices, saw a light,
       C D Em 
And started on the journey of my life...

The Lights Of A Distant Bay Tabs by Moonrise

                                           Artist - Moonrise
                                         *******************
                                  Song - The Lights Of A Distant Bay 
                                 ************************************
                                 Album - The Lights Of A Distant Bay 
                                *************************************
                                         - Ayreon77
                                       **********************




INTRO - PIANO
******
F#m  D  C#m E

-------------------------------------------------
VERSE 1
********
  F#m     
I see the lights
     D
Of a distant bay
     E                D
They seem to shine on me again

And their beams
  E             B
Uncover all the truth

-------------------------------------------------
VERSE 2
********
  F#m
I think of all
     D
That could have been
   E                   D
Of all the things that looked so real

And I know
     E                  B
They won’t come back to me

-------------------------------------------------
VERSE 3
********
F#m            D
   Just like a child
           E
I tried to hide
        D
My true desire, my state of mind
       E
All my life
           B
Was like a run

-------------------------------------------------
VERSE 4
********
F#m            D
   And now I’m here
              E
With just one plan
          D
I want to find myself again
        E          F#m
See the mystery of fate

-------------------------------------------------
CHORUS
*******
B D E Asus2 
01:37
SMALL SOLO - Play this with chorus below
***********              s        s                           b  r
[----------------------12\14--12--\-|---s--------------------12---10-12-]
[-12--10---s-----s-12---------------|-10\12--10---s-----s-12------------]
[---------9\11-9-\------------------|------------9\11-9-\---------------]
[-----------------------------------|-----------------------------------]
[-----------------------------------|-----------------------------------]
[-----------------------------------|-----------------------------------]
      
          B     D   E       Asus2
I see the light   I see the light
          B     D   E       Asus2
I see the light   I see the light
           B     D   E        Asus2
I feel the night   I feel the night    

-------------------------------------------------
VERSE 5
********
  F#m 
I seem to hear
    D
The freedom bell
     E                D
It’s in the distance, everywhere

I want to go
    E               B
But I can’t move my feet

-------------------------------------------------
VERSE 6
********
F#m          D
   I sit and wait
           E
For day to come
          D
I see the lights of passing cars
         E                 B   F#m B F#m
And it’s not the light for me

-------------------------------------------------
CHORUS - X2
*******
B D E Asus2
02:43
SMALL SOLO - Play this with chorus below
***********              s      p     h   s                    
[----------------------12\14--12-10-10-12-\-]
[-12--10---s-----s-12-----------------------]
[---------9\11-9-\--------------------------]
[-------------------------------------------]
[-------------------------------------------]
[-------------------------------------------] 


[------------------------------------]
[-12--10-----h--p--------------------]
[---------11--14-11-9----------------]
[---------------------12-11------h---]
[---------------------------12-12-14-]
[------------------------------------] 

                                              b  r  p
[---------------------------------------s----12---12-10-12-]
[----12---12---10-----------------s---10\12----------------]
[--s---------------11---p--------9\11----------------------]
[-9\------------------14-12-14-----------------------------]
[-------------

San Francisco Bay Blues chords – Eric Clapton V2

 C F C F C 
I got the blues from my baby down by the San Francisco Bay

                         F C 
Well there’s an ocean liner that took her so far away

     F 
I didn’t mean to treat her so bad

 8E                        7E        6E   5E
She was the best girl I ever have had

  D Db D G   
Said goodbye, made me cry, gonna lay right down and die

- - -

           C F C F C 
Well I ain’t got a nickel and I ain’t got a lousy dime

                  F 
And if she don’t come back

                                       E 
I think I’m gonna lose my mind

           F 
If she ever comes back to stay

  8E              7E         6E     5E
Gonna be another brand new day

              D G C F C 
Walkin’ with my baby down by the San Francisco Bay

- - -

                  C F C 
You know sittin’ down by my back door

                           F C 
Wonderin’ which way to go

    F C 
Woman I’m so crazy, she don’t love me no more

   F 
Think I’ll grab me a freight train

            8E       7E    6E  5E
Well, ‘cause I’m feelin’ blue

   D Db D 
Ride all the way to the end of the line

    G 
Thinkin’ only of you


- - -

          C F C F C 
Well, little while into the city, just about to go insane

  F 
Sounds like I heard my baby

                                             E 
The way she used to call my name

                   F 
Now if she ever comes back to stay

   8E           7E     6E           5E
Gonna be another brand new day

   D G                        (88765)
Walkin’ with my baby down by the San Francisco Bay

Yeah,

   D G                        (88765)
Walkin’ with my baby down by the San Francisco Bay

Black Bay chords – Canines

 Tuning: EADGBe

Chords used in this song.
   Bm F#m A Em/G Em/Gb D C 
I--2----2-----0-----3---------2-----2----0---I
I--3----2-----2-----0---------0-----3----1---I 
I--4----2-----2-----0---------0-----2----0---I
I--4----4-----2-----2---------2-----0----2---I
I--2----4-----0-----2---------2----------3---I
I-------2-----------0---------0--------------I

Intro:
F#m, A,  I----------3---3---2-2----I  G
         I----------0---0---0-0----I 
         I----------0---0---0-0----I 
         I----------2---2---2-2----I
         I-0------- 2---2---2-2----I
         I---3-2----0---0---0-0----I

Verse 1:
 Bm   AI-2-0---I         F#m 
    EI-----2-I
Black bay whered you go
                                     A 
I cant find any light from your boats
      AI-0-----I 
      EI---3-2-I        Em/G Em/Gb Bm D 
And it only makes         me feel    more alone


Verse 2:
 Bm   AI-2-0---I         F#m 
    EI-----2-I
Grey fog dont you tire
                                           A 
Of the dark isolation of night
  AI-0-----I 
  EI---3-2-I    Em/G Em/Gb Bm D 
I know that the pressure     gives you life
  AI-0-----I 
  EI---3-2-I    Em/G Em/Gb Bm D 
I know that the truth comes with the quiet
                            Em 
But Im just so afraid of mine


Chorus:
        G A 
So I blame the ones that I love
                           D G 
When I am no one to act as a judge
      G A 
I know the bottles not best
                          D G 
But Im just so starved for some kind of rest
           F#m A 
From these lungs
      Em/G Em/Gb G         
And my tied tongue


Interlude:
 D ,  F#m ,  Em/G ,  D ,  Bm ,  A ,  Em/G ,  G ,  Bm ,  C ,  B ,  G ,  Bm ,  G ,  Bm ,  F#m ,  G 


Verse 3:
 Bm   AI-2-0---I       F#m 
    EI-----2-I
What makes a man cave
                                 A 
To the simple escape from his days
  AI-0-----I 
  EI---3-2-I    Em/G Em/Gb Bm D 
Is it only a triumph      over fear
  AI-0-----I 
  EI---3-2-I     Em/G Em/Gb Bm D 
Of what happens when waking  cease to be
                                 Em 
Or do we secretly love these tear

        
http://songs.caninesmusic.com/

House Across The Bay chords – George Strait

 Intro.:  |( Em ) |( A ) |( D ) |( D ) |

( Em )Walkin' down this lonely stretch of beach, she and I walked ( D )down a thousand times
I ( Em )just can force myself to give her up like all the things ( D ) she left behind
( Em )Gone are the days, when I'd wake up with her warm bod-( A )y next to mine

(Chorus)
( G ) It gets cold here ( A )in the winter time
( D ) And my mind drifts away ( G ) to that house across the bay ( Em ) ( A )
( G ) A long talk and a ( A )glass of wine ( D ) and we'd love the night away ( G )
But that was yesterday ( Em ) ( A ) in that house across the ( D )bay

Inst.:  --- |( Em ) |( A ) |( D ) 

Her ( Em )laughter was contagious, her walk, her talk, her smile lit up ( D ) every room
They say things ( Em )happen for a reason, but I can't find one good reason, why 
she's ( D ) gone so soon
( Em )Life just seems to hang on every thought and everything ( Em/F# ) we ( A )used to be

(Chorus)
( G ) It gets cold here ( A )in the winter time
( D ) And my mind drifts away ( G ) to that house across the bay ( Em ) ( A )
( G ) A long talk and a ( A )glass of wine ( D ) and we'd love the night away ( G )
But that was yesterday ( Em ) ( A ) in that house across the ( D )bay

(Tag)
There was sunshine everyday ( Em ) and we'd love the night away ( A ) ---
In that house across the ( D )bay --- |( Em ) |( A ) |( D ) -----

Moreton Bay Tabs by Bernard Fanning

 Just need to say that it's not me personally who figured out the chords. I found 
them on another site where someone had come up with the chords. 
Many thanks to that person! <3 ?="" [a]="" [bm?]="" [bm]="" [d]="" [g?]="" [g]="" a="" a-|---------------------------------------------------------|-="" adore="" aged="" all="" am="" ambush="" ancient="" and="" as="" at="" b-|--------10--7--------------------------------------------|-="" back="" banks="" bay="" be="" beastly="" been="" bewailing="" black="" bm="" bondage="" brisbane="" but="" by="" captain="" castle="" chains="" chanced="" chords="" clay="" condemnation="" crimson="" cursed="" d="" d-|---------------------------------------------------------|-="" day="" deal="" death="" did="" downright="" e-|--------------|-="" e-|---------------------------------------------------------|-="" e-|-10--7---------------------------------------------------|-="" each="" egyptians="" emu="" equal="" excessive="" exhilarated="" fade="" fate="" fellow="" find="" flogging="" for="" former="" found="" from="" g="" g-|---------------7---9-911--9--7--7-(-7-7-7-7-7-7-7-7-7-)-|-="" gore="" had="" have="" he="" heard="" heavy="" hebrews="" hill="" his="" i="" in="" intro:="" irons="" island="" lacerated="" lay="" legs="" liberated="" lies="" like="" logan="" long="" lying="" macquarie="" maiden="" man="" mangled="" many="" me="" mind="" monsters="" moreton="" morning="" mortal="" mouldering="" my="" native="" new="" no="" norfolk="" now="" of="" often="" on="" one="" oppressed="" our="" parents="" penal="" places="" plains="" port="" prevails="" prisoner="" prisoners="" river="" settlements="" shall="" shore="" south="" starvation="" stations="" stray="" stroke="" such="" suffering="" sunday="" sunny="" that="" the="" there="" these="" they="" three="" till="" to="" toongabbie="" tore="" transported="" treated="" triangles="" tyranny="" tyrant="" under="" underbeneath="" us="" used:="" wales="" walking="" was="" waters="" we="" were="" when="" whom="" will="" with="" wore="" worked="" years="" yoke="" />