Tag: be

Like To Be You piano chords by Shawn Mendes

Bm            A D
Don't cry, or do whatever makes you comfortable
Bm         A
I’m tired, too
        D                    Bm             A
There's nothin' left to say, let’s call the truce
       D                         G   A     Bm
'Cause I don't really wanna go to bed like this


[Pre-Chorus 1]
Bm A      D
   I'm so sorry
Bm      A           D
   That we're still stuck in the middle
Bm A      D
   I'm so sorry
G                A        Bm
   'Cause in the moment I


[Chorus]
  Bm                   A          D
I don't know what it’s like to be you
  Bm                   A            D
I don’t know what it's like but I’m dying to
   Bm            A            D
If I could put myself in your shoes
     G                  A          Bm
Then I'd know what it's like to be you


[Verse 2]
      Bm          A
Can I kiss you or not?
       D                             Bm          A
'Cause I’m not really sure right now of what you want
    D                    Bm         A
Are you still mad at me? I'm hopin' not
       D                        G
'Cause maybe we could go to the movies
            A               Bm
I know that always cheers us up, hey


[Pre-Chorus 2]
Bm A      D
   I'm so sorry
Bm      A           D
   That we're still stuck in the middle
Bm A      D
   I'm so sorry
G                A        Bm
   'Cause in the moment I


[Chorus]
  Bm                   A          D
I don't know what it’s like to be you
  Bm                   A            D
I don’t know what it's like but I’m dying to
   Bm            A            D
If I could put myself in your shoes
     G                  A          Bm
Then I'd know what it's like to be you


[Bridge 1]
Bm               A            D
Tell me what's inside of your head
   Bm              A           D
No matter what you say I won't love you less
    Bm           A         D
And I'd be lying if I said that I do
  G                    A          Bm
I don't know what it's like to be you
  G                    A          Bm
I don't know what it's like to be you



Shawn Mendes
"Like To Be You"

Standard tuning.

  Bm  Aadd4 D    G
e|--------------------|
B|--------------------|
G|7----6----11---4----| Note: All following instances of A are the Aadd4 
D|0----0----0----0----| chord are written as A for ease of reading.
A|--------------------|
E|7----5----10---3----|


[Intro]
  Bm       Aadd4   D                Bm      Aadd4    D
e|----------------|----------------|----------------|----------------|
B|----------------|----------------|----------------|----------------|
G|----7-------6---|----11-----11---|----7-------6---|----11-----11---|
D|--0---0---0---0-|--0---0--0----0-|--0---0---0---0-|--0---0--0----0-|
A|----------------|----------------|----------------|----------------|
E|7-------5-------|10-----10-------|7-------5-------|10-----10-------|

[Verse]
  Bm       Aadd4   D                Bm      Aadd4    D
e|----------------|----------------|----------------|----------------|
B|----------------|----------------|----------------|----------------|
G|----7-------6---|----11-----11---|----7-------6---|----11-----11---|
D|--0---0---0---0-|--0---0--0----0-|--0---0---0---0-|--0---0--0----0-|
A|----------------|----------------|----------------|----------------|
E|7-------5-------|10-----10-------|7-------5-------|10-----10-------|

  Bm       Aadd4   D                G       Aadd4    B
e|----------------|----------------|----------------|----------------|
B|----------------|----------------|----------------|----------------|
G|----7-------6---|----11-----11---|----4-------6---|----7-------7---|
D|--0---0---0---0-|--0---0--0----0-|--0---0---0---0-|--0---0---0---0-|
A|----------------|----------------|----------------|----------------|
E|7-------5-------|10-----10-------|3-------5-------|7-------7-------|

Bm            A D
Don't cry, or do whatever makes you comfortable
Bm         A
I’m tired, too
        D                    Bm             A
There's nothin' left to say, let’s call the truce
       D                         G   A     Bm
'Cause I don't really wanna go to bed like this


[Pre-Chorus 1]
Bm A      D
   I'm so sorry
Bm      A           D
   That we're still stuck in the middle
Bm A      D
   I'm so sorry
G                A        Bm
   'Cause in the moment I


[Chorus]
  Bm                   A          D
I don't know what it’s like to be you
  Bm                   A            D
I don’t know what it's like but I’m dying to
   Bm            A            D
If I could put myself in your shoes
     G                  A          Bm
Then I'd know what it's like to be you


[Verse 2]
      Bm          A
Can I kiss you or not?
       D                             Bm          A
'Cause I’m not really sure right now of what you want
    D                    Bm         A
Are you still mad at me? I'm hopin' not
       D                        G
'Cause maybe we could go to the movies
            A               Bm
I know that always cheers us up, hey


[Pre-Chorus 2]
Bm A      D
   I'm so sorry
Bm      A           D
   That we're still stuck in the middle
Bm A      D
   I'm so sorry
G                A        Bm
   'Cause in the moment I


[Chorus]
  Bm                   A          D
I don't know what it’s like to be you
  Bm                   A            D
I don’t know what it's like but I’m dying to
   Bm            A            D
If I could put myself in your shoes
     G                  A          Bm
Then I'd know what it's like to be you


[Bridge 1]
Bm               A            D
Tell me what's inside of your head
   Bm              A           D
No matter what you say I won't love you less
    Bm           A         D
And I'd be lying if I said that I do
  G                    A          Bm
I don't know what it's like to be you
  G                    A          Bm
I don't know what it's like to be you


[Solo]
       Bm    A     D        Bm     A    D       Bm    A     D       G      A     Bm         
e|---------------------------------------------------------------------------------------------------|
B|-----------------------------7------------7p5h7--5--8---7---------------------------------5--------|
G|-7\6/7----------------7\6/7-----/9-\7-7-----------------------9\7----------------------------7-----|
D|------------9\7--7----------------------------------------7------------9-------------4/7-----------|
A|------------------------------------------------------------------7--9---7---5-5-------------------|
E|---------------------------------------------------------------------------------------------------|

[Bridge 2]
Bm A     D
   I get worried
Bm A       D
   I might lose you a little
Bm A     D
   Every time we
   G             A             Bm
   Every time we argue and get caught up in the moment


[Chorus]
  Bm                   A          D
I don't know what it’s like to be you
  Bm                   A            D
I don’t know what it's like but I’m dying to
   Bm            A            D
If I could put myself in your shoes
     G                  A          Bm
Then I'd know what it's like to be you


[Outro]
   Bm               A            D
So tell me what's inside of your head
   Bm              A           D
No matter what you say I won't love you less
           Bm         A           D
And I'd be lying if I said that I do
  G                    A          Bm
I don't know what it's like to be you
  G                    A          Bm
I don't know what it's like to be you
  G                    A    Bm
I don't know what it's like



Let It Be guitar chords by The Beatles

[Verse 1]
       C              G                 Am          Fmaj7    F6
When I find myself in times of trouble, Mother Mary comes to me
C                 G              F  C/E Dm C
Speaking words of wisdom, let it be
    C              G                 Am              Fmaj7    F6
And in my hour of darkness, She is standing right in front of me
C                 G              F  C/E Dm C
Speaking words of wisdom, Let it be

[Chorus]
        Am        C/G          F          C
Let it be, let it be,  let it be, let it be
C                G              F  C/E Dm C
 Whisper words of wisdom, let it be

[Verse 2]
       C              G              Am           Fmaj7    F6
And when the broken hearted people, Living in the world agree
C                 G              F  C/E Dm C
There will be an answer, let it be
       C                 G              Am                  Fmaj7    F6
For though they may be parted, There is still a chance that they may see
C                 G              F  C/E Dm C
There will be an answer, let it be

[Chorus]
        Am        C/G          F          C
Let it be, let it be, let it be, let it be
C                G              F  C/E Dm C           
There will be an answer, let it be
        Am        C/G          F          C       
Let it be, let it be, let it be, let it be
C                G              F  C/E Dm C          
Whisper words of wisdom, let it be
                       
[Instrumental]
F  C/E   Dm   C   Bb  F/A  G   F   C    (x2)

[Solo] x2
C  G  Am  F
C  G  F   C    
        
[Chorus]
        Am        C/G          F          C
Let it be, let it be,  let it be, let it be
C                G              F  C/E Dm C
 Whisper words of wisdom, let it be

[Verse 3]
      C                 G             
And when the night is cloudy, 
                 Am          Fmaj7    F6             
There is still a light that shines on me
   C             G              F  C/E Dm C  
Shine on till tomorrow, let it be
   C               G               Am        Fmaj7    F6   
I wake up to the sound of music, Mother Mary comes to me
   C                G            F  C/E Dm C  
Speaking words of wisdom, let it be

[Chorus]
        Am        C/G          F          C
Let it be, let it be,  let it be, let it be
C                G              F  C/E Dm C
 Whisper words of wisdom, let it be

[Outro]
F  C/E   Dm   C   Bb  F/A  G   F   C

Bibia Be Ye Ye Piano Chords by Ed Sheeran

[Intro]
G Am C D 
G Am C D
G Am C D
G Am C D

[Verse 1]
G         Am 
I lost my shoes last night
C             D              G    Am
I don’t know where I put my keys
       C               D               G 
I was tired and fell asleep beneath an oak tree
Am         C               D              G           Am
I bet my mother’s proud of me from each scar upon my knuckle
           C            D               G   Am
And each graze upon my knee, and all I know is
          C                D            G        Am
I got a cab and then threw up upon his car seat
              C              D             G    Am
He kicked me out and then I walked in the rain
        C               D              G           Am
I tell myself in every way I won’t be doing this again
       C           D
And tomorrow’s a brand new day

[Chorus]
G        Am      C       D
Someone told me always say what’s on your mind
G         Am     C         D            G        Am
And I am only being honest with you, I, I get lonely
C                       D
And make mistakes from time to time
G   Am    
Se enioma enko ye
C      D         G Am
Bibia be ye ye 
C       D           G Am
Bibia be ye ye ye ye ye ye ye
C       D
Bibia be ye ye

[Verse 2]
G   Am               C                D
I remember less and less and mostly things that I regret
G      Am                  C      D
In my phone are several texts from girls that I’ve never met
G           Am            C             D
And in the pocket of my jeans are only coins and broken dreams
G            Am               C            D
My heart is breaking at the seams and I’m coming apart now
G              Am                C                 D             G      Am
Now things are looking up, I’ll find my shoes right next to the oak tree
                C                 D
And I’ll get a bus straight into town
      G             Am                       C                 D                
And spend the afternoon looking around for things that I left on the ground
G                  Am        C           D
And say you’re with me, tomorrow’s a brand new day

[Chorus]
G        Am      C       D
Someone told me always say what’s on your mind
G         Am     C           D          G        Am
And I am only being honest with you, I, I get lonely
C             D
And make mistakes from time to time
G   Am    
Se enioma enko ye
C      D         G Am
Bibia be ye ye 
C       D       G Am
C       D       G Am 
C       D       G Am 
C       D       


G        Am      C           D
Someone told me always say what’s on your mind
G         Am     C           D               G        Am
And I am only being honest with you, I, I get lonely
C                      D
And make mistakes from time to time
G   Am    
Se enioma enko ye
C      D         G Am
Bibia be ye ye 
C       D           G Am
Bibia be ye ye ye ye ye ye ye
C       D       G Am 
Bibia be ye ye
C       D       G Am 
Bibia be ye ye
C       D       G Am 
Bibia be ye ye
C       D       G Am 
C       D       G Am   
C       D       G Am C D

Ill Be Waiting chords – Michael Franti & Spearhead

 This is the full album version. The radio edit clips the intro, the first part of pre-chorus 1, and condenses 
the outro. The C chord during the verses is actually "Csus4 C Csus4 C", but writing that in messes up the 
formatting of the lyrics.


CAPO 2
----------------------------------------
INTRO:
 G C 

VERSE 1:
 G 
The best things in life aren't things
         C 
They're living and breathing
 G 
The best things in life aren't things
         C 
They're something you can believe in

PRE-CHORUS 1:
       G 
Well, do you believe me
       C 
Well, do you believe me when I say
 D 
Tonight won’t last for long
 C 
And soon it will be gone
     G C 
But I won’t leave you alone, no, no

CHORUS:
              G 
Whenever you call me, whenever you need me
              Em 
Wherever you wander until you see me
         D C G 
I’ll be waiting, I’ll be waiting for you
              C 
For you, for you, for you

VERSE 2:
 G 
The best things in life aren't things
         C 
They're laughing and crying
 G 
The best things in life aren't things
         C 
They're frightened, but they’re still fighting

PRE-CHORUS 2:
       G 
Well, do you believe me
       C 
Well, do you believe me (yeah) when I say
 D 
Tonight won’t last for long
 C 
And soon it will be gone
     G C 
But I won’t leave you alone, no, no

CHORUS:
              G 
Whenever you call me, whenever you need me
              Em 
Wherever you wander until you see me
         D C G 
I’ll be waiting, I’ll be waiting for you
              C 
For you, for you, for you

BRIDGE:
 Am 
You said that you were leaving
          C 
But it’s alright (alright), it’s alright (alright)
 Am 
You said that you were sorry
          D 
But it’s alright (alright), yes, it’s alright (alright)

VERSE 3:
 G 
The best things in life aren't things
         C 
They're broken and bleeding
 G 
The best things in life aren't things
         C 
They’re chosen to believe in

CHORUS:
                 G 
So whenever you call me, whenever you need me
              Em 
Wherever you wander until you see me
         D C G 
I’ll be waiting, I’ll be waiting for you
              C 
For you, for you, for you

OUTRO:
            G                             
And I say, eee-ohh, eee-ohh, eee-ohh, eee-ohh, 
 G 
Eee-ohh, eee-ohh, eee-ohh, eee-ohh
 C 
Eee-ohh, eee-ohh, eee-ohh, eee-ohh, eee-ohh
        G 
I say, it’s alright (eee-ohh, eee-ohh, eee-ohh, eee-ohh),
 G 
it’s alright (eee-ohh, eee-ohh, eee-ohh, eee-ohh),
 C G 
It’s alright, it’s gonna be alright now

Heaven Must Be Wondering Where You Are chords – George Strait

 G D7 Am 
Somewhere up there beyond the blue

 D7 C G 
Surely by now somebody's missing you

                        C 
I found the angel they must be looking for

 D7 G 
Heaven must wondering where you are


 D7 G 
When I look into your eyes it's so plain to see

 A7 D7 
Nothing here on earth describes what you mean to me

 G C 
Out of this world when I hold you in my arms

 D7 G 
Heaven must wondering where you are


                    D7 Am 
Lucky me to be the one to find

 D7 C G 
Someone like you this side of paradise

                        C 
I know how lost I'd be without you here sweetheart

 D7 G 
Heaven must wondering where you are


 D7 G 
When I look into your eyes it's so plain to see

 A7 D7 
Nothing here on earth describes what you mean to me

 G C 
Out of this world when I hold you in my arms

 D7 G 
Heaven must wondering where you are


                   C 
I found the angel they must be looking for

 D7 G 
Heaven must wondering where you are

Well Be Okay Tabs – With Confidence

 With Confidence
   We'll Be Okay

By: AJ Booker

Guitar 1: Luke
Guitar 2: Ini

VERSE:
Guitar 1 and 2:
e|-----------------------------|
B|-----------------------------|
G|--7-7---4-4---2-2------------|
D|--7-7---4-4---2-2---5-5-555--|
A|--5-5---2-2---0-0---5-5-555--|
E|--------------------3-3-333--| x3

e|---------------------|
B|---------------------|
G|--7-7---4-4---2------|
D|--7-7---4-4---2-hold-|
A|--5-5---2-2---0------|
E|---------------------|

e|-----------------------------|
B|-----------------------------|
G|--7-7---4-4---2-2------------|
D|--7-7---4-4---2-2---5-5-555--|
A|--5-5---2-2---0-0---5-5-555--|
E|--------------------3-3-333--| x4


Over the second and last time repeated, Guitar 2 plays:
e|---------------------------------------------|
B|-----15-14-10--------------15-14-10----------|
G|---14----------16-14-----14------------------|
D|-12----------12--------12----------12-14-12--|
A|---------------------------------------------|
E|---------------------------------------------|


PRECHORUS:
Guitar 1 only
e|------------|
B|------------|
G|-6/7-7-6-7--|
D|-6/7-7-6-7--|
A|-4/5-5-4-5--|
E|------------| x3

CHORUS:
Guitar 1 and 2:
e|--------------------------------------|
B|--------------------------------------|
G|-77777777-44444444----------22222222--|
D|-77777777-44444444-55555555-22222222--|
A|-55555555-22222222-55555555-00000000--|
E|-------------------33333333-----------| x2

2ND VERSE (intro):
Guitar 1:
e|--------------------------------------------------|
B|--------------------------------------------------|
G|--7-7---4-4---2-2--------------7-7---4-4---2------|
D|--7-7---4-4---2-2---5-5-555----7-7---4-4---2-hold-|
A|--5-5---2-2---0-0---5-5-555----5-5---2-2---0------|
E|--------------------3-3-333-----------------------|

Guitar 2:
e|---------------------------------------------|
B|-----15-14-10--------------15-14-10----------|
G|---14----------16-14-----14------------------|
D|-12----------12--------12----------12-14-12--|
A|---------------------------------------------|
E|---------------------------------------------|

I'm not too sure what the play during the actual verse, but I just play the
chords from the intro but palm muted and 4 times on each like:
e|----------------------|
B|----------------------|
G|-7777-4444-2222-------|
D|-7777-4444-2222-5555--|
A|-5555-2222-0000-5555--|
E|----------------3333--| x2
   **** **** **** ****

PRECHORUS:
Guitar 1 only
e|-------****---------****---------****-----------------------|
B|-------****---------****---------****-----------------------|
G|-6/7-7-****---6/7-7-****---6/7-7-****--7--------------------|
D|-6/7-7-****---6/7-7-****---6/7-7-****--7--------------------|
A|-4/5-5-****---4/5-5-****---4/5-5-****--5-hold---------------|
E|-------****---------****---------****----------*pickslide*--|

CHORUS:
Guitar 1 and 2:
e|--------------------------------------|
B|--------------------------------------|
G|-77777777-44444444----------22222222--|
D|-77777777-44444444-55555555-22222222--|
A|-55555555-22222222-55555555-00000000--|
E|-------------------33333333-----------| x2

BRIDGE:
Guitar 1 and 2:
e|------------------------------------------------|
B|------------------------------------------------|
G|-7-4-7-----7-4-7-6---7-4-7-----7-4-7-6--7777777-|
D|-7-4-7-----7-4-7-6---7-4-7-----7-4-7-6--7777777-|
A|-5-2-5-----5-2-5-4---5-2-5-----5-2-5-4--5555555-|
E|------------------------------------------------|
                                          *******


CHORUS:
Guitar 1 and 2:
e|----------------------------------------------------------------------------|
B|----------------------------------------------------------------------------|
G|-7-7-4-4--44444444----------22222222--77777777-44444444----------22222222---|
D|-7-7-4-4--44444444-55555555-22222222--77777777-44444444-55555555-22222222---|
A|-5-5-2-2--22222222-55555555-00000000--55555555-22222222-55555555-00000000---|
E|-------------------33333333------------------------------33333333-----------|

OUTTRO:
Guita

We Could Be The Same chords – MaNga Vsion 2

 ORDER: I V1 PC C1 INT V2 PC C2 B FC O


[INTRO]
 Dm  |  A7  |  A  |  Dm  |
 Dm  |  Gmadd9/D  |  A/D  |  Dm   n.c. |
 Dm  | | | |
  C  | |  Gm  |  Gm F A7/E   |



[VERSE 1]
 Dm 
      You could be the one in my dreams
 A7/D 
      You could be much more than you seem
 A 
      Anything I wanted in life
 Dm 
      Do you understand what I mean?
 Dm 
      I can see that this could be faith
 A7-9 
      I can love you more than they hate
 A 
      Doesn't matter who they will blame
n.c.
      We can beat them at their own game


[PRE-CHORUS]
 Dm A7 
   I can see it in your eyes
 A A7/C# Dm 
   It doesn't come as a surprise
 Dm A7 
   I see you dancing like a star
 A A/C# Dm  n.c.
   No matter how different we are


[CHORUS 1]
 Dm C Gm 
For all this time I've been loving you
            Bb C 
Don't even know your name
 Dm C Gm 
For just one night, we could be the same
    Gm F A/E Dm 
No matter what they say


[INTERLUDE]
(  Dm  ) | | | |
      C  | |  Gm  |  Gm F A/E  |


[VERSE 2]
 Dm 
    And I feel I'm turning the page
 A7                  n.c.
    And I feel the world is a stage
 A A/C# 
    I don't think that dra - ma will stop
 Dm 
    I don't think they'll give up the rage
 Dm 
    But I know the world could be great
 A7-9 
    I can love you more than they hate
 A 
    Doesn't matter who they will blame
n.c.
    We can beat them at their own game


[PRE-CHORUS]
 Dm A7 
   I can see it in your eyes
 A A7/C# Dm 
   It doesn't come as a surprise
 Dm A7 
   I see you dancing like a star
 A A/C# Dm  n.c.
   No matter how different we are


[CHORUS 2]
 Dm C Gm 
For all this time I've been loving you
            Bb C 
Don't even know your name
 Dm C Gm 
For just one night, we could be the same
    Gm F A/E Bb 
No matter what they say


[BRIDGE]
(  Bb  ) | |  Dm  |  A7  |
   Bb    | |  Dm  |  Gm F A/E  |


[FINAL CHORUS]
 Dm C Gm 
For all this time I've been loving you
            Bb C 
Don't even know your name
 Dm C Gm 
For just one night, we could be the same
    Gm F A/E Gm F A/E 
No matter what they say
    Gm F A/E Dm 
No matter what they say


[OUTRO]
(  Dm  ) | |

  |                |  C 
No matter what they  say (they say)
                 Gm 
We could be the same
    Gm F A/E        n.c.
No matter what they say

Touched To Be Sure chords – Robert Pollard

 Artist: Robert Pollard
Song: Touched to Be Sure
 Silverfish Trivia
 
Chords
============
 A                002220
 Asus4            000230
Aadd4           000220
 Em/G             322000
 Bsus4/G          324000
 Esus4            022200
 E                022100
 Amaj7            002120
 Abmin            466444
 F5               577000
 
Licks
=====
 
Refrain lick
e|--------------|
B|--------------|
G|--------------|
D|--------------|
A|0-0h3h5---3-0-|
E|--------------|
 
Outro lick
e|--------------|
B|--------------|
G|--------------|
D|7-7-5-5-4-4-7-|
A|7-7-5-5-4-4-7-|
E|5-0-3-0-2-0-5-|
 
 
Song structure
=============
Intro - x2
Verse
Chorus
Verse
Chorus
Refrain (lyrical) - x2
Bridge - x2
Refrain (instrumental) - x2
Refrain variation - x2
Outro
 

Intro
=====
 A Asus4           Aadd4  Asus4 
 
 
Verse
========
 A Em/G Bsus4/G 
I'm     only        
 
 A Em/G Bsus4/G   
Someone who thinks of you
 
 Esus4 E 
 
 
Chorus
========
 
 Amin Bmin     
         And all these thoughts will be
 
 B Esus4 G 
Placed in   time
 
 B Esus4 A 
I've    passed  the  bad signs
 
 
Refrain
=========
 A 
It's Lipschitz city
 
 Amaj7 
And my girl's pretty
 
 Abmin 
If I'm not right
 
   C G A   
I must be  sick
 
(Refrain lick) [played on first round of lyrical refrain, and both rounds of instrumental refrain]
 
 
Bridge
========
 C G B 
            The right hand
 C G B 
            Sits smoking
 C G F 
            The left one
 C G F 
            Strange
 
 
Refrain variation
=========
 A Esus4 A 
Drive the windows
 
 Dmaj7 D/A Dmaj7 
Smash my eyelids
 
 C 
Airphone housing
 
 A 
Makes me fly
 
 C G A  [played on first round only]
 
 
Outro
=========
(Outro lick)
 F5 
(Outro lick)
 F5 F5 F5 
(Outro lick)
 F5 F5 F5 F5 F5 
(Outro lick)
 F5 
(Outro lick) x16

Damita Jo – Ill Be There chords

 I'll Be There:Damita Jo.
#12 on BB Hot 100 on MERCURY Records
in 1961.

INTRO:  Bb Gm Eb F 

#1.
         Bb Gm7 
You can reach the top or suddenly drop,
          Eb F Bb 
all your burdens, I'll gladly bear.
 Bb Gm7 
Just run to my arms, yeah, right or wrong,
    Eb F Bb 
no matter what happens, I'll be there.

CHORUS:
 Bb                  
And darling, darling, I'll be there, whoa, 
 Gm7 Eb F Bb 
I'll be there, to protect this love we share.

#2.
 Bb Gm7 
If your friends desert you, yes, when things 
                   Eb F Bb 
go wrong, you can always be sure I care.
 Bb Gm7 
When you face each dawn and you think you 
                  Eb F Bb 
can't go on, you know I'll, I'll be there.

CHORUS:
 Bb                  
Oh, darling, darling, I'll be there, yes, 
 Gm7 Eb F 
I'll be there, I'll always, I'll always be 
 Bb 
there.


INTERLUDE:  Bb Gm7 Eb F  Bb..Bb  Gm7 F Gm7 Eb F Bb 

CHORUS:
 Bb F Bb 
And, darling, darling, I'll be there, whoa-oh, 
 Gm7 Eb F 
I'll be there, I'll always, I'll always be 
 Bb 
there.

OUTRO:
 Bb 
Whenever you're in trouble, darling, I'll be 
                 Gm7 Eb 
there, you know I'll be there, I'll always, 
      F Bb 
I'll always be there, oh, oh, yes..(Fade.)



A sixties smash from Kraziekhat.

It Must Be Love chords – Ty Herndon

 It must be love - Ty Herndon

Composers: Bickhardt and Sundrud
Label: Epic


Reached #38 in the hot 100 and #1 on the country chart in 1998.

Chorus is in ()

Intro:
 E A E E Aadd9 E A E 
I just dropped her off, I'm thinking "Oh what a night"
 E Aadd9 E A E 
I ought to be flying but I'm sittin here at this green light
   A E A E 
I thought I was in control, thought I knew where I wanted to go
       B B7 
She's got me turned inside out, I'm wonderin' what it's all about


          E F#m7 A B7 
( Is she there in your dreams? ) I don't know, I can't sleep
          E F#m7 A B 
( Is she breaking your heart? ) Yeah, but isn't it sweet?
            C#m A B7 
( Does she know how you feel? ) It's right on the tip of my tongue
           E F#m7 A B7           
( Are you walking on air? ) Well I'm sure feeling tall
            E F#m7 A B7          
( Does she trouble your mind? ) It's no trouble at all
    E F#m7 A B7 E A E 
Oh I don't know but something tells me it must be love.

 E Aadd9 E          
I just missed my turn, guess I'm not thinking straight
 E Aadd9 E       
Oh and what's with this car, it's driving me back to her place
 A E A E 
I'm out here circling around, I've already covered this  ground
       B B7 
These feelings just can't be denied, so what am I trying to decide



          E F#m7 A B7 
( Is she there in your dreams? ) I don't know, I can't sleep
          E F#m7 A B 
( Is she breaking your heart? ) Yeah, but isn't it sweet?
            C#m A B7 
( Does she know how you feel? ) It's right on the tip of my tongue
           E F#m7 A B7            
( Are you walking on air? ) Well I'm sure feeling tall
            E F#m7 A B7          
( Does she trouble your mind? ) It's no trouble at all
    E F#m7 A B A 
Oh I don't know but something tells me it must be love.

Instrumental:
 A E A E F#m7 B7 E A B7 
( Is she there in your dreams? ) I don't know, I can't sleep
         E F#m7 A B 
( Is she breaking your heart? ) Yeah, but isn't it sweet?
            C#m A B7 
( Does she know how you feel? ) It's right on the tip of my tongue
           E F#m7 A B7            
( Are you walking on air? ) Well I'm sure feeling tall
            E F#m7 A B7          
( Does she trouble your mind? ) It's no trouble at all
    E F#m7 A B7 E        
Oh I don't know but something tells me it must be love.


  E F#m7 A B7 
(I don't know but something tells me) 
    E F#m7 A B7 E      
Oh I don't know but somethi

The Man Who Would Be King intro Tabs – Iron Maiden Vsion 2

 -------------------------------------------------------------------------------
                             The Man Who Would Be King - Iron Maiden
-------------------------------------------------------------------------------
: Kyle Zamory

Tuning: Standard

. submission. Enjoy!

************************************

| /   slide up
| \   slide down
| h   hammer-on
| p   pull-off
| ~   vibrato
| +   harmonic
| x   Mute note
| b   Bend
| pb  Pre-bend
| br  Bend release
| pbr Pre-bend release
| brb Bend release bend

************************************

e|--------------------------10-----------------------------------------------|
B|-----------10---12---13--------12---13-------------------------------------|
G|-----------------------------------------12--------------------------------|
D|---------------------------------------------------------------------------|
A|---------------------------------------------------------------------------|
E|---------------------------------------------------------------------------|

e|--------------------------10-----------------------------------------------|
B|-----------10---12---13--------12--------10--------------------------------|
G|------------------------------------12-------------------------------------|
D|---------------------------------------------------------------------------|
A|---------------------------------------------------------------------------|
E|---------------------------------------------------------------------------|
                                                                                    X2
e|--------------------------10---12---13--------10---------------------------|
B|-----------10---12---13------------------13--------12----------------------|
G|---------------------------------------------------------------------------|
D|---------------------------------------------------------------------------|
A|---------------------------------------------------------------------------|
E|---------------------------------------------------------------------------|

e|-----------13---12-H-13-P-12-P-10---8-H-10-P-8-----------------------------|
B|-------------------------------------------------12---8-H-10-P-10----------|
G|--------------------------------------------------------------------9------|
D|---------------------------------------------------------------------------|
A|---------------------------------------------------------------------------|
E|---------------------------------------------------------------------------|

Less Of Me Let Me Be A Little Kinder chords – Glen Campbell

 Less Of Me (Let Me Be A Little Kinder)
Glen Campbell
Glen Campbell Goodtime Hour 


Intro:  G C G C G D C D G  

Verse 1 

        G C G D 
Let me be a little kinder let me be a little blinder
        C D 
To the faults of those around me let me praise a little more
        G C G D 
Let me be when I am weary just a little bit more cheery
         C D G C G 
Think a little more of others and a little less of me

  G C G D C D G   

Verse 2 
   
        G C G D 
Let me be a little braver when temptation bids me waver
        C D 
Let me strive a little harder to be all that I should be
            G C G D 
And let me be a little meeker with a brother that is weaker
        C D G C G 
Let me think more of my neighbor and a little less of me

  G C G D C D G E 

Verse 3

        A D A E 
Let me be when I am weary just a little bit more cheery
        D E 
Let me serve a little better those that I am striving for
            A D A E 
And let me be a little meeker with a brother that is weaker
         D E A 
Think a little more of others and a little less of me

  A D A E 

Outro

         D E A 
Think a little more of others and a little less of me

flyinglibra51
God Bless Glen Travis Campbell

Could It Be Love chords – Jennifer Warnes

 Could It Be Love
Jennifer Warnes 

Back-up singers is a big part of this song so it's included

Intro   Dm C C7 Am Dm G C G G7 C 

Verse 1

 C 
Well it seems right But I wonder
 Am C Dm 
And it feels right But I wonder
           G C G C 
If I know how true love feels
                                                           Am 
Well he shows me                   But I wonder
                (could it be love)           (could it be love)
                                        Dm 
He tells me But I wonder
                         (could it be love)
             G C G 
If he knows   how true love feels
             (how true love feels) 

Chorus 1   

       Am Dm G 
Is it all infactuation
                   (Or is it possibly real)
       Am Dm G 
Is it heartache's consulation 
                          (Or is it possibly real)
         Dm G        
Tell me again (This could be just what you wanted so long)
                Dm F G     
Please tell me again (This could be someone who has wants and those needs of his own)

 C G C 

Verse 2
                               
Well it seems right 
                 (Could it be love)
                         Am 
But I wonder 
          (Could it be love)
                                             Dm 
And it feels right Oh but I wonder 
                               (Could it be love)
            G C G 
If we know how true love feels
          (How true love feels)


riff    C Am Dm G C G7 

Chorus 2

       Am Dm G 
Is it all infactuation 
                    (Or is it possibly real)
       Am Dm G            
Is it heartache's consulation 
                            (Or is it possibly real)
         Dm G 
Tell me again  (This could be just what you wanted so long)
                F G C G 
Please tell me again (This could be someone who has wants and needs of his own)


Bridge

        C Am 
But it seems right but I wonder
                (Could it be love) (Could it be love)
                                       Dm 
feels right oh but I wonder
                         (Could it be love)
             G C G 
If we know how true love feels
(love love how true love feels)

        C Am 
But he shows me but I wonder
                (Could it be love)
                                 Dm 
He tells me Oh but I wonder
                         (is it love)
            G C G 
If we know how true love feels
(love love How true love feels)

outro

         C Am 
Well it seems right but I wonder
                 (Could it be love) (Could it be love)


It feels right Oh but I wonder  (Fade quickly)

flyinglibra51
God Bless Glen Travis Campbel

Ill Be Over You chords – Toto V4

 I’LL BE OVER YOU
Toto
 G. S. Saavedra II

Capo 1

 
                D 
  Some people live their dreams
                 E 
  Some people close their eyes
                 Bm7 
  Some people's destiny
  D A 
  Passes by

                 D 
  There are no guarantees
                E 
  There are no alibis
                   Bm7 
  That's how our love must be
  D A 
  Don't ask why

Refrain I:
                  E    
  It takes some time
   D/F#   
  God knows how long
      Dm E 
  I know that I can forget you

Chorus I:
                   A E F#m E  
  As soon as my heart stops breakin'
         F#m E D E  
  *And tears are fading 
       Bm7 D E     
  As soon as forever is through
    D A 
  I'll be over you

                 D 
  Remembering times gone by
            E 
  Promises we once made
                 Bm7 
  What are the reasons why
  D A 
  Nothing stays the same

Refrain II:
                    E    
  There were the nights 
   D/F#   
  Holding you close
    Dm E 
  Someday I'll try to forget them

Repeat Chorus I ----

Adlib:  E F# D E Bm7 C#m7 DM7 

Chorus II:
                   A E F#m E/A 
  As soon as my heart stops breakin'                       
            F#m E/F# D E/D 
  And tears are fading
     Bm7 D E     
  Someday I’ll be over you

Chorus II:
                   A E F#m E  
  As soon as my heart stops breakin'
         F#m E D E  
  *And tears are fading 
   Bm7 D E     
  Someday I’ll be over you

Coda:
  (Do Chorus II chords twice then fade)
  As soon as my heart ………

*not "Anticipating" as some lyrics suggest

Be Like You Tabs – Ed Sheeran V2

 Ed Sheeran - Be Like You

 Swift Freeze

I tabbed this by ear and am 97% sure it is correct other than the bridge.

Tuning EADGBe

Capo - 3

I have added a strumming guideline for the pre-chorus marked as T||----DDUD etc.

Intro

e||----------------------------------------------| (0:00)
B||---------------3----------------------3-------|
G||-0--2x-2-----2-0----0--0x0-2x-2-----2-0----0--|
D||-0--1x-1-0h2-0---0-0h2-0x0-1x-1-0h2-0---0-0h2-|
A||------2--------3-------------2--------3-------|
E||-3---------------------3x3--------------------|

Verse 1

e||------------------------| x2 (0:09)
B||----------------3-------|
G||-0x0-2x-2-----2-0----0--|
D||-0x0-1x-1-0h2-0---0-0h2-|
A||-------2--------3-------|
E||-3x3--------------------|

e||--------------------------| x1 (0:18)
B||------------------3-------|
G||-0x0-2x-2---------0----0--|
D||-0x0-1x-1-0h2h5p2---0-0h2-|
A||-------2----------3-------|
E||-3x3----------------------|

e||-----------------------------| x1 (0:23)
B||--------------------3-x------|
G||-0x0-2x-2-----(2X)--0-x----0-|
D||-0x0-1x-1-0h2-(0X)-0----0-0h2|
A||-------2------------3-x------|
E||-3x3-------------------------|

e||------------------------| x2 (0:28)
B||----------------3-------|
G||-0x0-2x-2-----2-0----0--|
D||-0x0-1x-1-0h2-0---0-0h2-|
A||-------2--------3-------|
E||-3x3--------------------|

e||--------------------------| x1 (0:37)
B||------------------3-------|
G||-0x0-2x-2---------0----0--|
D||-0x0-1x-1-0h2h5p2---0-0h2-|
A||-------2----------3-------|
E||-3x3----------------------|


e||---------------------------| (0:42)
B||-------------------3-------|
G||-0x0-2x-2-------22-0----0--|
D||-0x0-1x-1-0h2p0-000--0-0h2-|
A||-------2-----------3-------|
E||-3x3-----------------------|

Pre-Chorus


T||-D--U-D--U-D--D-DU--DDUD--D-DU--DDUD--D-DU--DDUD---| (0:46)
e||--------------------------3-3x--33x3---------------|
B||-0h11x0h11x1--1-1x--11x1--3-3x--33x3---------------|
G||-0--0x0--0x0--0-0x--00x0--0-0x--00x2--2-2x--22x2---|
D||-2--2x2--2x2--2-2x--22x2--0-0x--00x0--0-0x--00x0---|
A||--------------3-3x--33x3--2-2x--22x2--0-0x--00x0---|
E||--------------------------3-3x--33x3---------------|

T||-D-DU--DDUD--D-DU--DDUD--D-DU--DDUD--D--D-------|
e||-------------------------3-3x--33x3-------------| (0:56)
B||-1-1x--11x1--1-1x--11x1--3-3x--32x3-------------|
G||-0-0x--00x0--0-0x--00x0--0-0x--22x2--2r-2r------|
D||-2-2x--22x2--2-2x--22x2--0-0x--00x0--0r-1r------|
A||-------------3-3x--33x3--2-2x--22x2--0r-2r------|
E||-------------------------3-3x--33x3-------------|

Chorus

e||-------------------3--3-----------------------------------3--3----------| (1:05)
B||----------1--1-----1--1-----0--------------------1--1-----1--1-----0----|
G||-0--0-----0--0--------------0--2--2-----0--0-----0--0--------------0--2-|
D||-2--2--------------------------0--1-----2--2--------------------------1-|
A||----------------------------------2-----------------------------------2-|
E||------------------------------------------------------------------------|

Verse 2

e||----------------------| (1:24)
B||--------------3-------|
G||-0-2x-2-----2-0----0--|
D||-0-1x-1-0h2-0---0-0h2-|
A||-----2--------3-------|
E||-3--------------------|

e||---------------------------|x2 (1:28)
B||-------------------3-------|
G||-0x0-2x-2-------22-0----0--|
D||-0x0-1x-1-0h2p0-000--0-0h2-|
A||-------2-----------3-------|
E||-3x3-----------------------|

e||--------------------------| x4 (1:38)
B||------------------3-------|
G||-0x0-2x-2---------0----0--|
D||-0x0-1x-1-0h2h5p2---0-0h2-|
A||-------2----------3-------|
E||-3x3----------------------|

e||------------------------| x2 (1:57)
B||----------------3-------|
G||-0x0-2x-2-----2-0----0--|
D||-0x0-1x-1-0h2-0---0-0h2-|
A||-------2--------3-------|
E||-3x3--------------------|

Pre-Chorus


T||-D--U-D--U-D--D-DU--DDUD--D-DU--DDUD--D-DU--DDUD---| (2:01)
e||--------------------------3-3x--33x3---------------|
B||-0h11x0h11x1--1-1x--11x1--3-3x--33x3---------------|
G||-0--0x0--0x0--0-0x--00x0--

Cruel To Be Kind Tabs – Nick Lowe

 CRUEL TO BE KIND

As recorded by Nick Lowe
(From the 1979 Album LABOUR OF LUST)

Words and Music by Nick Lowe & Ian Gomm

 Slowhand


Gtr I (E A D G B E) - 'Billy Bremner - Acoustic Guitar'
Gtr II (E A D G B E) - 'Dave Edmunds - Electric Guitar'


   Intro
    Q=134                                          1.
    C               G/D             F/C             G/D
   4/4
    Gtr I (Ac. Gtr.)
    Q  Q  E E E E   Q  Q  E E E E   Q  Q  E E E E   E E Q  E E E E
||--0--0--0-0-0-0-|---------------|---------------|-----------------||
||o-1--1--1-1-1-1-|-3--3--3-3-3-3-|-1--1--1-1-1-1-|-3-3-3--3-3-3-3-o||
||--0--0--0-0-0-0-|-4--4--4-4-4-4-|-2--2--2-2-2-2-|-4-4-4--4-4-4-4--||
||--2--2--2-2-2-2-|-5--5--5-5-5-5-|-3--3--3-3-3-3-|-5-5-5--5-5-5-5--||
||o-3--3--3-3-3-3-|-5--5--5-5-5-5-|-3--3--3-3-3-3-|-5-5-5--5-5-5-5-o||
||----------------|---------------|---------------|-----------------||


                                      1st - 3rd Verses
  2.
                                   $
                                       C               Em
  E E E E E E E E   E E E E E E Q      Q  Q  E E E E   Q  Q  E E E E
|-----------------|----------------||--0--0--0-0-0-0-|-0--0--0-0-0-0-|
|-3-3-3-3-3-3-3-3-|-3-3-3-3-3-3-3--||o-1--1--1-1-1-1-|-0--0--0-0-0-0-|
|-4-4-4-4-4-4-4-4-|-4-4-4-4-4-4-4--||--0--0--0-0-0-0-|-0--0--0-0-0-0-|
|-5-5-5-5-5-5-5-5-|-5-5-5-5-5-5-5--||--2--2--2-2-2-2-|-2--2--2-2-2-2-|
|-5-5-5-5-5-5-5-5-|-5-5-5-5-5-5-5--||o-3--3--3-3-3-3-|-2--2--2-2-2-2-|
|-----------------|----------------||----------------|-0--0--0-0-0-0-|
|
|                                  Gtr II (El. Gtr.)
| W                 W                  W               W
|-----------------|----------------||--0-------------|---------------|
|-----------------|----------------||o-1-------------|---------------|
|-----------------|----------------||--0-------------|---------------|
|-----------------|----------------||----------------|---------------|
|-----------------|----------------||o---------------|---------------|
|-----------------|----------------||----------------|---------------|


  F/C                               C               Em
  Q  Q  E E E E   E E E E E E E E   E E Q  E E Q    E E Q  E E Q
|---------------|-----------------|-0-0-0--0-0-0--|-0-0-0--0-0-0--|
|-1--1--1-1-1-1-|-1-1-1-1-1-1-1-1-|-1-1-1--1-1-1--|-0-0-0--0-0-0--|
|-2--2--2-2-2-2-|-2-2-2-2-2-2-2-2-|-0-0-0--0-0-0--|-0-0-0--0-0-0--|
|-3--3--3-3-3-3-|-3-3-3-3-3-3-3-3-|-2-2-2--2-2-2--|-2-2-2--2-2-2--|
|-3--3--3-3-3-3-|-3-3-3-3-3-3-3-3-|-3-3-3--3-3-3--|-2-2-2--2-2-2--|
|---------------|-----------------|---------------|-0-0-0--0-0-0--|


  F/C    Em       Dm             F/C              Em
  Q  E E Q  E E   Q  Q  E E Q    E E Q  E E E E   E E Q  E E E E
|--------0--0-0-|-1--1--1-1-1--|----------------|-0-0-0--0-0-0-0-|
|-1--1-1-0--0-0-|-3--3--3-3-3--|-1-1-1--1-1-1-1-|-0-0-0--0-0-0-0-|
|-2--2-2-0--0-0-|-2--2--2-2-2--|-2-2-2--2-2-2-2-|-0-0-0--0-0-0-0-|
|-3--3-3-2--2-2-|-0--0--0-0-0--|-3-3-3--3-3-3-3-|-2-2-2--2-2-2-2-|
|-3--3-3-2--2-2-|--------------|-3-3-3--3-3-3-3-|-2-2-2--2-2-2-2-|
|--------0--0-0-|--------------|----------------|-0-0-0--0-0-0-0-|


                                  Chorus
  F/C             G/D              F/C     G/D       Em      Am
  Q  E E E E Q    E E Q  E E Q     E E E E E E E E   E E E E E E E E
|---------------|---------------||-----------------|-0-0-0-0-0-0-0-0-|
|-1--1-1-1-1-1--|-3-3-3--3-3-3--||-1-1-1-1-3-3-3-3-|-0-0-0-0-1-1-1-1-|
|-2--2-2-2-2-2--|-4-4-4--4-4-4--||-2-2-2-2-4-4-4-4-|-0-0-0-0-2-2-2-2-|
|-3--3-3-3-3-3--|-5-5-5--5-5-5--||-3-3-3-3-5-5-5-5-|-2-2-2-2-2-2-2-2-|
|-3--3-3-3-3-3--|-5-5-5--5-5-5--||-3-3-3-3-5-5-5-5-|-2-2-2-2-0-0-0-0-|
|---------------|---------------||-----------------|-0-0-0-0---------|


  F/C     G/D       Em      Am        F/C     G/D       Em      Am
  E E E E E E E E   E E E E E E E E   E E E E E E E E   E E E E E E E E
|-----------------|-0-0-0-0-0-0-0-0-|-----------------|-0-0-0-0-0-0-0-0-|
|-1-1-1-1-3-3-3-3-|-0-0-0-0-1-1

It Wont Be Long chords – Beatles V5

 ---------------------------------------------------------------------------
                It Won’t be Long – The Beatles
---------------------------------------------------------------------------
: maguri
Tuning: Standard

The Beatles
It Won’t be Long (1963)
(Lennon/McCartney)

From: "With the Beatles" (UK) / “Meet the Beatles” (US)

---------------------------------------------------------------------------
CHORDS

          E-A-D-G-B-e
A7-9      x-0-2-3-2-3  or (which I like better): x-1-2-0-2-0 (= A#dim7)

D#aug     x-6-5-4-4-x
D6        x-5-4-4-3-x
C#7       x-4-3-4-2-x

G6        x-x-5-4-3-0
F#7       x-x-4-3-2-0
Fmaj7     x-x-3-2-1-0
Emaj7     0-2-2-4-4-4

---------------------------------------------------------------------------

CHORUS
             C#m 
It won't be long yeah, yeah, yeah
             E 
It won't be long yeah, yeah, yeah
             C#m A A7-9    |  E  | % |
It won't be long yeah, till I belong to you


VERSE
 E C E 
 Every night when everybody has fun
 E C E 
 Here am I sitting all on my own


CHORUS
             C#m 
It won't be long yeah, yeah, yeah
             E 
It won't be long yeah, yeah, yeah
             C#m A A7-9    |  E  | % |
It won't be long yeah, till I belong to you


MIDDLE 8
           E D#aug 
Since you left me, I'm so alone
            D6 C#7 
Now you're coming, you're coming on home
 A B 
I'll be good like I know I should
               F#m B 
You're coming home, you're coming home


VERSE
 E C E 
 Every night the tears come down from my eyes
 E C E 
 Every day I've done nothing but cry


CHORUS
             C#m 
It won't be long yeah, yeah, yeah
             E 
It won't be long yeah, yeah, yeah
             C#m A A7-9    |  E  | % |
It won't be long yeah, till I belong to you


MIDDLE 8
           E D#aug 
Since you left me, I'm so alone
            D6 C#7 
Now you're coming, you're coming on home
 A B 
I'll be good like I know I should
               F#m B 
You're coming home, you're coming home, so ...


VERSE
 E C E 
 Every day we'll be happy I know
 E C E 
 Now I know that you won't leave me no more


CHORUS (+ coda)
             C#m 
It won't be long yeah, yeah, yeah
             E 
It won't be long yeah, yeah, yeah
             C#m   
It won't be long yeah
      A G6 F#7 Fmaj7 Emaj7 
Till I belong to you
   (break)

Everythings Gonna Be Alright chords – Christie

 Released in 1972.
To play this song in the right key (E) I have my capo on the 2nd fret.

Intro =  D G A D G A D G A D G A 

Verse 1
 D A 
You tell me I must be strong
 Bm G 
And I must keep holding on
 D A G D 
Keep the sunshine in your mind
      Em A 
Everything's gonna work out fine

Verse 2
 D A 
Grey was day and black was night
 Bm G 
Now my lamp is shining bright
 D A G D    
Now I know I can survive
      D A D G D A 
Everything's gonna be alright hey hey hey
      D A D D G A D G A 
Everything's gonna be alright

Chorus
       D A G G A    
Everything's gonna be alright
       D A G G A  
Everything's gonna be alright
       D A G G A 
Everything's gonna be alright
   D G A D G A 
Alright     alright

Verse 3
 D A 
I was sinking in the sand
 Bm G 
Said I need a helping hand
 D A G D    
I see things much clearer now
       Em A 
Never thought I would somehow

Verse 4
 D A 
You tell me I'd done what's right
 Bm G 
And I'm gonna win the fight
 D A G D 
Soon as I can see the light
       D A D G D A 
Everything's gonna be alright hey hey hey
       D A D D G A D G A 
Everything's gonna be alright

Chorus
      D A G G A 
Everything's gonna be alright
      D A G G A 
Everything's gonna be alright
      D A G G A 
Everything's gonna be alright
   D D G A D D G A D G A D G A 
Alright     alright

Repeat chorus
      D A G G A 
Everything's gonna be alright
      D A G G A 
Everything's gonna be alright
      D A G G A 
Everything's gonna be alright
   D D G A D D G A D G A D G A 
Alright     alright
   D D G A D D G A 
Alright     alright       
   D D G A D D  
Alright     alright

I Wont Be Crying Anymore chords – Webb Pierce

 C 
You cheated and you lied

 F 
When I found out I cried

     C G7 
But I won't be crying anymore

 F C 
Let's just say that I  will love you till I die

    G7 C 
But I won't be crying anymore

 
 C  
You thought that you were clever

 F 
You thought that I would never

      C G7 
Find out that you were running around on me

 F C 
Though it hurts me so I thought I'd let you know

     G7 C 
That I won't be crying anymore

 
 C  
I didn't think you'd do it

 F 
But there was nothing to it

 C G7 
When they told me that you'd been stepping out

 F C 
But now I know it's true  now I know that we're through

    G7 C 
So I won't be crying anymore 

Be Wherever You Are chords – Rebecca Sugar V5

 C B7 
Isn't this such... a beautiful night?,

             Em G7 C C7 
Whoa, we're underneath the thousand shining stars.

          F G7 C 
Isn't it nice to find yourself somewhere different?

    D7 F G7 C 
Whoa, why don't you let yourself just be wherever you are?.


          
Look at this place,

              B7 
Look at your faces.

      Em G7 C C7 
I've never seen you look like this before.

          F G7 C 
Isn't it nice to find yourself somewhere different?,

    D7 F G7 C 
Whoa, why don't you let yourself just be wherever you are?.



Look at this place,

               B7 
Look at your faces.

           Em G7 C C7 
They're shining like a thousand shining stars.

          F G7 C 
Isn't it nice to find yourself somewhere different?,

    D7 F G7 C 
Whoa, why don't you let yourself just be wherever you are?.


               F G7 C 
Why don't you let yourself just be somewhere different?.

    D7 F G7 C 
Whoa, why don't you let yourself just be whoever you are?.


Lo siento, ya hay varias tabs de esta canción y yo me gaste el oido en vano sin saber que 
existian,
solo la dejo aqui porque no se como borrarla asi que diganme como se borra el que venga a aprobarla