Tag: beat

Godsend Tabs – Beat Happening V2

 Standard Tuning ;)


The intro part that repeats:

-------------------------------------------
-------------------------------------------
-------------------------------------------
-------------------------------------------
--------2-2-2-2-3-3-3-3-3-3-3-3-3----------
3-3-3-3------------------------------------

Repeat and thennnn

-------------------------------------------
--------0-0-----0-0----0-0-----------------
-----2p0----2p0----2p0---------------------
-------------------------------------------
-------------------------------------------
-------------------------------------------



Chords:

------------------3--3--3--3--3-3-3--------
------------------2--2--2--2--2-2-2--------
-------------------------------------------
--2--2--2--2-2-2---------------------------
--3--3--3--3-3-3--2--2--2--2--2-2-2--------
------------------3--3--3--3--3-3-3--------



Enjoy :)

Godsend Tabs – Beat Happening

 -------------------------------------------------------------------------------
                             Godsend - Beat Happening
-------------------------------------------------------------------------------

Tuning: standard

Guitar 1:

e|---------------------------------------------------------------------------|
B|---------------------------------------------------------------------------|
G|---------------------------------------------------------------------------|
D|---------------------------------------------------------------------------|
A|----------2-2-2-3-3-3-3-3-3-3----------------------------------------------|
E|--3-3-3-3------------------------------------------------------------------|

occassionaly play C and G chords

Guitar 2:

e|---------------------------------------------------------------------------|
B|------0-0-----0-0----------------------------------------------------------|
G|--2p0-----2p0--------------------------------------------------------------|
D|---------------------------------------------------------------------------|
A|---------------------------------------------------------------------------|
E|---------------------------------------------------------------------------|


************************************

| /   slide up
| \   slide down
| h   hammer-on
| p   pull-off
| ~   vibrato
| +   harmonic
| x   Mute note
| b   Bend
| pb  Pre-bend
| br  Bend release
| pbr Pre-bend release
| brb Bend release bend

************************************

Beat Of My Heart solo Tabs – Noisettes

 -------------------------------------------------------------------------------
                             Beat of My Heart - The Noisettes
-------------------------------------------------------------------------------
: AngelLombard

Tuning: Standard

Dan plays it with plenty of vibrato so just throw some in here and there when it feels right :)
Any corrections or comments are 100% welcome.

e|---16161616--14--12-14--12--14--16-----------------------------------------|
B|---------------------------------------------------------------------------|
G|---------------------------------------------------------------------------|
D|---------------------------------------------------------------------------|
A|---------------------------------------------------------------------------|
E|---------------------------------------------------------------------------|

e|----16161616--14--12-17--16--14--12----------------------------------------|
B|------------------------------------161616-17--12-161616-17--12-161616-17--|
G|---------------------------------------------------------------------------|
D|---------------------------------------------------------------------------|
A|---------------------------------------------------------------------------|
E|---------------------------------------------------------------------------|

e|---------------------------------------------------------------------------|
B|----161616-17-19-----------------------------------------------------------|
G|---------------------------------------------------------------------------|
D|---------------------------------------------------------------------------|
A|---------------------------------------------------------------------------|
E|---------------------------------------------------------------------------|

e|----16161616--14--12-17--16--14--12----------------------------------------|
B|------------------------------------161616-17--12-161616-17--12-161616-17--|
G|---------------------------------------------------------------------------|
D|---------------------------------------------------------------------------|
A|---------------------------------------------------------------------------|
E|---------------------------------------------------------------------------|

e|---------------------------------------------------------------------------|
B|-----161616-1414(14)--12\--------------------------------------------------|
G|---------------------------------------------------------------------------|
D|---------------------------------------------------------------------------|
A|---------------------------------------------------------------------------|
E|---------------------------------------------------------------------------|




************************************

| /   slide up
| \   slide down
| h   hammer-on
| p   pull-off
| ~   vibrato
| +   harmonic
| x   Mute note
| b   Bend
| pb  Pre-bend
| br  Bend release
| pbr Pre-bend release
| brb Bend release bend

************************************

Shred Or Die Kill Em With The Beat Tabs by Dog Blood

 It's played in Drop D, and (obviously) has a metal / any heavy distortion effect


For first part, it's

e|--------------------------------------|
B|--------------------------------------|
G|--------------------------------------|
D|-0-1-0-1--xxx0-1-0-1-1-0-1-1-1-|  x12-|
A|-0-1-0-1--xxx0-1-0-1-1-0-1-1-1--------|
D|-0-1-0-1--xxx0-1-0-1-1-0-1-1-1--------|

Repeat until the rise synth thing comes in, and then play this


e|-------------------------------------|
B|-------------------------------------|
G|-------------------------------------|
 D|-0-1-0-1-12--xxx0-1-0-1-1-0-1-1-1---|
A|-0-1-0-1--12--xxx0-1-0-1-1-0-1-1-1---|
D|-0-1-0-1--12--xxx0-1-0-1-1-0-1-1-1---|

until the breakdown, and then it goes like this

e|-------------------------|
B|-------------------------|
G|-------------------------|
D|-0-0-3-1-xxxx-0-3-1------|
A|-0-0-3-1-xxxx-0-3-1------|
D|-0-0-3-1-xxxx-0-3-1------|

and then after, it goes:

e|-------------------------|
B|-------------------------|
G|-------------------------|
D|-0-0-3-1-xxxx-0-3-1------|
A|-0-0-3-1-xxxx-0-3-1------| x2
D|-0-0-3-1-xxxx-0-3-1------|


e|----------------------------|
B|----------------------------|
G|----------------------------|
D|-0-0-3-1-xxxx-0-3-3-12-11---|
A|-0-0-3-1-xxxx-0-3-3-12-11---|
D|-0-0-3-1-xxxx-0-3-3-12-11---|

and that's basically it. Hope you all like. And I'm sorry about the formatting, as this 
is my first tab. Please leave comments on how it sounds, and if you'd like to make any 
changes! Thanks!

Here's their soundcloud (Dog blood is Skrillex and Boys Noize)

https://soundcloud.com/dogblood

The Devils Beat chords – Sandi Thom

 Artist: Sandi Thom
Song: The Devil's beat
: DJ
20th Jan 2014

Tuning: Standard

[N.B. This is the way I prefer to play it, but I've made some brief notes
at the end of the song to show how Sandi performs it]

CAPO at 4th fret (Sounds in the key of C#m)

Chord shapes are relative to the capo position:
 Am  = x02210     E  =  022100    Dm7  = xx0211
 C   = x32010     E7  = 022130    F    = 133211

***********************************************************************

   Am C Am E Am C Am E7 
| /  /  /  /  |  /  /  /  /  |  /  /  /  /  |  /  /  /  / |


  Am C Am E Am C Am E7 
Help me get my feet...    back to solid ground,
                Am C Am E 
'Cause we're walking to the Devil's beat,
            Am C Am E7 
And it's trying to bring us down!


            Am C Am E 
Well, the Devil's got us rolling a six-sided dice,
            Am C Am E7 
And it's burning up the oil, and melting down the ice,
          Am C Am E 
And the bank tills are ringing to the tune of war!
         Am C Am E7 
Do you ever wonder what it is we're fighting for?


 Dm7 G C F 
 Oh, oh - oh, oh! It don't feel so good when the sun don't shine,
 Dm7 G C F 
 Oh, oh - oh, oh! We gotta leave this place, leave it all behind,
 Dm7 G C E E7 
 Oh, oh - oh, oh, before I loose my head, and I loose my mind!


  Am C Am E Am C Am E7 
Help me get my feet...    back to solid ground,
                Am C Am E 
'Cause we're walking to the Devil's beat,
            Am C Am E7 
And it's trying to bring us down!


       Am C Am E 
Oo, sweet Mother Nature's such a lonely girl,
   Am C Am E7 
What's she gonna do when we sell the world?
  Am C Am E 
Time will only tell, if the prophecy's true,
           Am C Am E7 
Has the Devil got the beat, or has the beat got you?


 Dm7 G C F 
 Oh, oh - oh, oh! It don't feel so good when the sun don't shine,
 Dm7 G C F 
 Oh, oh - oh, oh! We gotta leave this place, leave it all behind,
 Dm7 G C E E7 
 Oh, oh - oh, oh, before I loose my head, and I loose my mind!


[No chords - muffle strings and scrub rhythm]
Help me get my feet...back to solid ground,
'Cause we're walking to the Devil's beat,
And it's trying to bring us down!

Come on, help me get my feet...back to solid ground,
'Cause we're walking to the Devil's beat,
And it's trying to bring us down!


 Dm7 G C F 
 Oh, oh - oh, oh! It don't feel so good when the sun don't shine,
 Dm7 G C F 
 Oh, oh - oh, oh! We gotta leave this place, leave it all behi

Beat Of The Music Couch Sessions chords – Brett Eldredge

 Credit to Bduffy7 for some of the original tabs.  These are the chords to 
accurately follow along with Brett's Couch Session version of "Beat of the Music" 
which is solo acoustic here: http://youtu.be/rQ_3rTFx5Eo


Beat Of The Music
by Brett Eldredge

(Capo on 2)

Intro.:   C D G Em  x 2

Well ( C )I just ( D )met you A couple ( G )hours A-( Em )go
My ( C )last night in ( D )town, hey ( G )wouldn't you ( Em )know
I get ( C )hooked on A ( D )girl with ( G )blue diamond ( Em )eyes
Down here in ( C )Mexico, oh ( D )

Now ( C )you're walking ( D )up asking ( G )me to ( Em )dance
( C )Smiling that ( D )smile and reaching ( G )out your ( Em )hand
Well there's a ( C )move or ( D )two, I'd ( G )like to show ( Em )you
While I ( C )still got the chance ( D )

(Chorus)
Well ( C )you got the ( D )soul and you ( G )know how to ( Em )use it
Put your ( C )hand on my ( D )hip cause you ( G )know that I'll ( Em )lose it
You ( C )got my heart ( D )racing like ( G )there's nothing ( Em )to it
( C )Falling in ( D )love to the ( G )beat of the ( Em )music


( C )Oh oh, why wouldn't I wanna ( G )stay?
( C )Oh oh, and let that plane fly a-( D )way, hey hey

(Chorus)
'Cause ( C )you got the ( D )soul and you ( G )know how to ( Em )use it
Put your ( C )hand on my ( D )hip cause you ( G )know that I'll ( Em )lose it
You ( C )got my heart ( D )racing like ( G )there's nothing ( Em )to it
( C )Falling in ( D )love to the ( C )beat of the ( G )music
( C )Falling in ( D )love to the ( G )beat of the music...  ( C )( D )( G )( Em ) x2
 
I think ( C )I could get ( D )used to that ( G )steel drum ( Em )playing
Waking up ( C )on a ( D )beach if you ( G )know what I'm ( Em )saying
One ( C )more ( D )night would be ( G )more than ( Em )alright with me ( C )
...So hold ( D ) on, baby, 'cause 

(Chorus)
( C )You got the ( D )soul and you ( G )know how to ( Em )use it
Put your ( C )hand on my ( D )hip cause you ( G )know that I'll ( Em )lose it
You ( C )got my heart ( D )racing like ( G )there's nothing ( Em )to it
( C )Falling in ( D )love to the ( G )beat of the ( C )music

(Tag)                             hold...
We're ( C )falling in ( D )love to ( C )beat of the music...
|( C )( D )alright ooh|( G )( Em )|( C )( D )|( G )( Em )|
                               Hey yehHey yeh 
|( C )( D )|( G )( Em )|( C )( D )|( G )( Em</sp

Our Secret Tabs by Beat Happening

 ------------------------------------------------------|
------------------------------------------------------|
--------------6-6-6-4-3-4-----------------------------|
-----------------------------4------------------------|
------------------------------------------------------|
------------------------------------------------------|

Beat Again chords – Jls V7

 JLS- Beat Again
Thought i'd do a version of this myself, its my first tab so sorry for any 
mistakes.. I play this on Capo 6 :)




 G 
Damn
               Am             
The Doctors's just finished telling me
            C 
There's No Time
            Am G 
Losing you could be the end of me and that I
               Am C 
should do the things that I wanna do, how could I

         Am 
Without you 
Without you
 C G 
ooh, ooh
       G Em  
Cause you're the only one I let in
         G Em 
Tell me how to stop this feeling spreading
 G Em 
I'm hoping somehow that you know
Ooh, ohh

 G 
Let's just get back together
 Em 
We should have never broke up
 Am 
They're telling me
         C G 
That my heart wont beat again


We should've stayed together
 Em 
Cause when you left me it stopped
 Am 
They're telling me
    C Em  
My heart wont beat again

            G 
Won't beat again
              Am 
It's killing me
Hey, hey, hey

      G  
If I died 
                Em 
Yeah would you come to my funeral
           C 
Would you cry
           Am 
Would you feel some regret
                G 
That we didn't try
          Em 
Or would you fall apart
             C Am 
The same as I, I, I, I

 Em G Em 
Oh and would it always haunt you baby?
 Am C 
That you missed your chance to save me

 G 
Cause you know it's not
    Em 
To late
           C 
Hey, hey, hey

 G 
Let's just get back together
 Em 
We should have never broke up
 Am 
They're telling me
         C G 
That my heart wont beat again
 G 
We should've stayed together
 Em 
Cause when you left me it stopped
 Am 
They're telling me 
    C Em 
My heart wont beat again
            Am   
Won't beat again
            G 
Its killin me

Hey I need you
 G  
Back in my arms
        Em 
I need love CPR
            Am  
Cause it's gettin 
         C 
So cold ooh,
        G 
I need you back again
         Em 
Or else I'll never mend
             Am 
And girl if I go
                    C 
I go, I go, I go

 G 
Let's just get back together
 Em 
We should have never broke up
 Am 
They're telling me
         C Em  
That my heart wont beat again
 G 
We should've stayed together
 Em 
Cause when you left me it stopped
 Am 
They're telling me that
    C Em  
My heart wont beat again
            Em 
Won't beat again
              G 
It's killing me

Land Of Green chords – The Coalminers Beat V2

 Am 
I was sitting in a station bar,  
  C G Am  
somewhere in amerika  
  Am C G  
when an old man came to me  
  Am         
he said: "can I sit next to you?",  
     C G Am 
and I had nothing else to do  
        C G  
so he sat down and drank his beer  


     Am   
he told me 'bout the rocks and hills,  
  C G Am  
about the autum and its chill  
  Am C G  
about the valleys and the rain  
  Am      
and then he spoke of former times,  
  C G Am  
about his children and his wife  
  Am C G  
and about what yet remained  


  F G  
suddenly he said: "my son,  
  F Em  
do you know the land,  
  Em Em Em Em  
where i've come from  
  Em Em Em 
and he asked  


  Am G  
do you know the land of green,  
  Em F  
its rough and stormy sea  
  Am G Em   FG  
do you know the island of the rain  
  Am G  
do you know the land of green,  
  Em F  
its wondrous scenery  
  Am G Em   FG 
do you know the island of the rain  



  Am          
many of us had left their homes,  
  C G Am  
never felt the westwind blow again  
     C G  
he said with lonely eyes  
       Am        
they once had worked upon the land,  
       C G Am 
that now is in some stranger's hands     
     C G  
he said with angry eyes  


  F G  
the more he spoke, the more he drank  
  F  
the more he kept  
      Em Em Em Em Em Em  
on telling 'bout his land and he  
  Em  
said  


  Am G  
do you know the land of green,  
  E F  
its rough and stormy sea  
  Am G Em   FG  
do you know the island of the rain  
  Am G  
do you know the land of green,  
  Em F  
its wondrous scenery  
  Am G Em   FG 
do you know the island of the rain 


        Am            
even though the bar was full of noise,  
      C G Am  
the man began to lower his voice  
           C G  
and stood up without a word  
  Am  
although it is five years ago i  
  C  
swear  
          G Am  
that i exactly know   
        C G  
every word that we had said  


    F G  
I still can see his trembling hands,  
  F Em Em Em Em  
as he told the story 'bout his land 
 Em Em Em  
and he said  



  Am G  
do you know the land of green,  
  E F  
its rough and stormy sea  
  Am G Em   FG  
do you know the island of the rain  
  Am G  
do you know the land of green,  
  Em F  
its wondrous scenery  
  Am 

Whats Important chords – Beat Happening

 Beat Happening - What's Important

This is currently arranged for solo guitar. It's a lot simpler with the lead and rhythm 
separate. Either way it's pretty easy, which is what makes it cool in the first place.

Fmaj7 = x03210 (alternate with x03211 before next note on verses, let's call this one FM7*)

The instrumental section is all on an Am, with your pinky controlling this pattern:

 Am , 002213, 002230,  Am Am Am  (repeat)

The trick is to strum the heavier strings on the first Am, and the lighter strings on 
the rest.

(if you're just doing rhythm, it goes on power chords: Am, DDD. that last D has the 
second finger pulled off, so the chord is actually x555 instead of x577)

Enjoy and improve on it!

-MolochMachine

 Fmaj7 FM7 *  C Fmaj7 FM7 *  C 
put on your boots and walk with me
 Fmaj7 FM7 *  C Fmaj7 FM7 *  C 
over the freeway and down to the sea
 Fmaj7 FM7 *  C Fmaj7 FM7 *  C 
that's where we can always go
 Fmaj7 FM7 *  C Fmaj7 FM7 *  C 
when we really wanna know

 Am  pattern
 Am  pattern
 Am  pattern
 Am  pattern

 Am ,  E Fmaj7 FM7 *                      C E 
we sit by the window and we watch the rain
 Fmaj7 FM7 *    C E 
each little drop has got a name
 Fmaj7 FM7 *                      C E 
they're falling down and they're hiting the ground
 Fmaj7 FM7 *    C E 
they're washing all the people away

 Am  pattern
 Am  pattern
 Am  pattern
 Am  pattern

 Am ,  E Fmaj7 FM7 *  C Fmaj7 FM7 *  C 
go on the roof and we'll see the sky
 Fmaj7 FM7 *  C Fmaj7 FM7 *  C 
let the world pass us by
 Fmaj7 FM7 *  C Fmaj7 FM7 *  C 
we can make it all turn grey
 Fmaj7 FM7 *  C Fmaj7 FM7 *  C 
if we really want it that way

 Am  pattern
 Am  pattern
 Am  pattern
 Am  pattern

 Am ,  E Fmaj7 FM7 *                C E 
paint me a picture of the way you feel
 Fmaj7 FM7 *        C E 
close your eyes and make it real
 Fmaj7 FM7 *                C E 
sing me a song of the place you see
 Fmaj7 FM7 *        C E 
we can go there, just you and me

 Am  pattern
 Am  pattern
 Am  pattern
 Am  pattern

 Am ,  E Fmaj7 FM7 *          C Fmaj7 FM7 *  C 
you don't have to smile if you don't want to
 Fmaj7 FM7 *          C Fmaj7 FM7 *  C 
i don't have to smile if i don't want to
 Fmaj7 FM7 *          C Fmaj7 FM7 *  C 
we don't have to smile if we don't want to

Beat Of Your Heart chords – Cory Morrow

 Beat of Your Heart
Written by Cory Morrow and Patrick Davis

Intro:

 D  -  Bm  -  A  -  D  (2x)

First Verse:

      Bm A D Bm A D 
I hear that you're doing unwell.
     Bm A D Bm A D 
From your smile I could never tell.
                 Bm A D 
You open up the door and the world pours in,
            Bm A D 
all of its problems solutions and sins.
            Bm A D 
Everybody seems to have a remedy,
                                 Bm A                   
but there ain't no remedy that's ever gonna cure me.



Chorus:

 G D 
Take it while it comes cause it don't last long.
       Bm A G 
Hesitate and the moment's gone. 
                                  D 
Run in the rain and howl at the moon.
         Bm A Em 
Fall in love way too soon.
                     Bm G 
Take my hand as the music starts
 G D 
and we'll dance to the beat of your heart.


 Bm  -  A  -  D  (2x)


Second Verse:

            Bm A D Bm A D 
There's a distance in your eyes,
            Bm A D Bm A D 
seems you been looking for a place to hide.
                  Bm A D 
There's nothing but love around you my child,
                 Bm A D 
but you can't see from your crying eyes.
               Bm A D   
You stand in a crowd when you wanna be alone,
                       Bm A       
you're your own contradiction but you're not alone.



*** REPEAT CHORUS ***


Bridge:

 Bm G A 
I know you stumble down that road,
 A 
trembling from the cold.
 Bm G A 
But this heart, and this love,
 A 
can save you.  It can save you.


*** REPEAT CHORUS X2 ***

 D  -  Bm  -  A  -  D  (Several Times)