Tag: bells

Wedding Bells chords – Glen Campbell

 Wedding Bells
Glen Campbel

Verse 1
 Bm G D G        
I have the invitation that you sent me
                  Am D G 
You wanted me to see you change your name
   C G 
I couldn't stand to see you wed another
 Bm D Am D G     (walk up to  C  )
But dear I hope you're happy just the same

Chorus 1

 C G 
Wedding bells are ringing in the chapel
 G7 Am D G   (walk up to  C  )
That should be ringing now for you and me
C                        (walk dn to G) G               
Down the aisle with someone else you're walking
 C# Am D G D#             
Those wedding bells will never ring for me

Verse 2

         G# D# G# D#              
Now I'd planned a little cottage in the valley
            G# C# D# G# G#7 
And I even bought a little band of gold
    C# G# 
I thought someday I'd place it on your finger
     D# C# D# G#    (walk up to  C#  )
But now my future looks so dark and cold

Outro

 C# G# D 
Wedding bells are ringing in the chapel
       C# D# G# 
That should be ringing now for you and me
 C# G# 
Down the aisle with someone else you're walking
       D# C# D# C# G# 
Those wedding bells will never ring for me

flyinglibra51
God Bless Glen Travis Campbell

Silver Bells chords – Misc Christmas V7

  Silver Bells – Christmas Traditional

(This version if for the nimble finger players)

Intro:   G7 C Dm C G7 C G7 C Am G Em C Am G Em E E7 C Am  
Ci-ty  sidewalks, bu-sy  sidewalks, dressed in  ho-liday style,
 Dm Dm7 G7 Am G Am G7 Am G7 
In  the  air there's a  feeling of  Christmas.


 C Am G Em C Am G Em E E7 C Am  
Children laughing, people passing, meeting smile after smile, 
 Dm Dm7 G7 Am G Am G7 C G7 
And on   ev-ery street cor-ner you'll hear:


 Em F C Am G7 C G7 C Dm C G7 C G G7 
Sil-ver bells, sil-ver bells, its Christmas time in the ci-ty,
 Em F C Am G7 C G7 C Dm C G7 C G7 
Ring-a-ling, hear them ring, soon it will be   Christmas day.


 C Am G Em C Am G Em E E7 C Am  
Strings of  street lights, ev-en  stop lights, blink a  bright red and green,
 Dm Dm7 G7 Am G Am G7 Am G7 
As the  shoppers rush home with their treasures.


 C Am G Em C Am G Em E E7 C Am  
Hear the  snow crunch, see the kids bunch, this is Santa's big scene,
 Dm Dm7 G7 Am G Am G7 C G7 
And above  all this bustle you'll hear:


 Em F C Am G7 C G7 C Dm C G7 C G G7 
Sil-ver bells, sil-ver bells, its Christmas time in the ci-ty,
 Em F C Am G7 C G7 C Dm C G7 C G7 
Ring-a-ling, hear them ring, soon it will be   Christmas day.

Jingle Bells Tabs – Misc Christmas V11

 , so please leave suggestions in the comments.
Tuning: Standard

|----0-----------0-----------1-0-----3-3-1---0-------0------------0------------1-0---3-3-3--5-3-1-----3--|
|------3-1---------3-1-----------3-0-------3-----------3-1----------3-1------------3--------------3-1----|
|0-0-------0--0-0------2--2-2------------------0-0---------0--0-0-------2--2-2---------------------------|
|--------------------------------------------------------------------------------------------------------|
|--------------------------------------------------------------------------------------------------------|
|--------------------------------------------------------------------------------------------------------|

-chorus-

|-0-0-0-----0-0-0-----0-3------0--1-1-1-1-1-0-0-0-------0---3--|   
|--------------------------1-3--------------------3-3-3---3----|
|--------------------------------------------------------------|
|--------------------------------------------------------------|
|--------------------------------------------------------------|
|--------------------------------------------------------------|
   
 
|-0-0-0-----0-0-0-----0-3------0--1-1-1-1-1-0-0-0-3-3-1------|   
|--------------------------1-3--------------------------3-1--|
|------------------------------------------------------------|
|------------------------------------------------------------|
|------------------------------------------------------------|
|------------------------------------------------------------|

-chorus end-

Repeat enough all this until the song ends. Enjoy!

3 Bells In A Row chords – Tenpole Tudor

  Tenpole Tudor   3 Bells In A Row       1981

INTRO
        
 G D G D G        
Pull me away from the fruit machine
 D 
(Taking a gamble taking a gamble)
 G 
Winning the jackpot is my dream
 D 
(Taking a gamble taking a gamble)
 G 
(Taking a gamble taking a gamble)
 D G 
I wanna see three bells in a row
 D G 
I wanna see three bells in a row
 C D 
Got no resistance, baby


CHORUS

 G D 
(Whoa oh) Just one more
 G D 
(Whoa oh) One more go
 G D 
(Whoa oh) I won nothing
 G D 
Oh no (Oh no)
 G D 
Oh no (Oh no)


 G 
Working hard and not much pay
 D 
(Taking a gamble taking a gamble)
 G 
Seems I do it every day
 D 
(Taking a gamble taking a gamble)
 G 
(Taking a gamble taking a gamble)
 D G 
I wanna see three bells in a row
 D G 
I wanna see three bells in a row
 C D 
Got no resistance, baby


CHORUS

 G D 
(Whoa oh) Just one more
 G D 
(Whoa oh) One more go
 G D 
(Whoa oh) I won nothing
 G D 
Oh no (Oh no)
 G D 
Oh no (Oh no)

 G C 
Well, listen
     G   >>>   D 
Ah, hmm

MUSIC BREAK
 G D Em C G      >>>>>>>>>      D G 
Yesterday, I had my dream
 D 
(Taking a gamble taking a gamble)
 G 
I won a quid on the fruit machine (ha ha)
 D 
(Taking a gamble taking a gamble)
 G 
(Taking a gamble taking a gamble)                 Both Lines Sang Together
I won a quid on the fruit machine but
 C G C G 
But that is nothing without your sweet touch
 D G 
I wanna see three more bells in a row
 D G 
I wanna see three more bells in a row
 C D 
Got no resistance, baby
 C D                Alternatively No Chords for vocal line
Got no resistance, baby


CHORUS

 G D 
(Whoa oh) Just one more
 G D 
(Whoa oh) One more go
 G D 
(Whoa oh) I'll learn someday
 G D 
Oh yeah (Oh yeah)
 G D 
Oh yeah (Oh yeah)
 G D 
(Whoa oh) Just one more
 G D 
(Whoa oh) Oh, one more go
 G D 
(Whoa oh) I'll learn someday
 G D 
Oh yeah (Oh yeah)
 G D G  >>>>>>>>>>>>
Oh yeah (Oh yeah)



Very easy tune to play,but quite a fun tune from 1981

Mark W

Three Bells For Stephen chords – Mickey Newbury

 Three Bells for Stephen

          C E7 F 
Do you remember me, dear hearts and gentle people 
   G C G 
I pray I have not stayed away too long 
        C E7 F  
Do you think of me, dear hearts and gentle people 
 F#dim G 
You can buy my memories for a song 

 C E7 F 
Can you see the blue hills of Kentucky
 G C G                          
Can you see my old Kentucky home 
 C E7 F 
Can you hear my sweetheart sadly singing 
 F#dim G G7 
In a voice as pure and sweet as heather in the gloom 

Will you pray for me, fear hearts and gentle people 
For what I have seen has brought me to my knees 
On those lonely nights I could find no sleep 
Oh I would unlock my heart and soul on strings and ivory keys 

Now I come to you, dear hearts and gentle people 
A voice across an endless sea of time 
Where ever there are songs I will be singing 
      C G F 
Dear hearts and gentle people goodnight 
      C G F C 
Dear hearts and gentle people goodnight

I Heard The Bells On Christmas Day Tabs – Casting Crowns

 : Javen
Tuning: Standard
Key: Bb
Capo 3 (played in G) *chords in parenthesis are with capo 3 

This is the tab (for the piano part transposed for guitar)and 
the chords for the song.


Intro:
          Gm (Em)                                      Eb (C)
e|----------------------------------------------)----------------------------------------------------|
B|-(measure 1)----------------------------------)-(measure 2)----------------------------------------|
G|----------------------------------------------)----------------------------------------------------|
D|------0-----------0-----------0-----------0---)--------1-----------1-----------1-----------1-------|
A|-1----------1-----------1-----------1---------)--1-----------1-----------1-----------1-------------|
E|----3----3-----3-----3-----3-----3-----3-----3)-----3-----3-----3-----3-----3-----3-----3-----3----|

          Bb (G)                                       D7/A 
e|-----------------------------------------------)------------------------------------|
B|-(measure 3)-----------------------------------)-(measure 4)------------------------|
G|-----------------------------------------------)------------------------------------|
D|-------0-----------0-----------0-----------0---)-------0----------------------------|
A|-1-----------1-----------1-----------1---------)-3-----------3-----0----------------|
E|----1-----1-----1-----1-----1-----1-----1-----1)----2-----1-----1-------------------|

END OF INTRO:
---------------------------------------------------------------------------------------------------
        F (used in verses)
e|---------------------------------------------------------------------------|
B|---------------------------------------------------------------------------|
G|---------------------------------------------------------------------------|
D|---------3-----------------------------------------------------------------|
A|---3-----------------------------------------------------------------------|
E|------1-----1--------------------------------------------------------------|

---------------------------------------------------------------------------------------------------
Verse 1: 
          *You can either keep playing the intro tab through the verses 
like the piano does, or capo 3  and strum using chords in the key of G. 
The tab pattern is the same throughout pretty much the whole song. The 
chords in parenthesis are in G and the ones not in parenthesis are the 
same chords as in the intro.

                               Gm (Em)                                  
I heard the bells on Christmas day
Eb (C)                    Bb (G)
Their old familiar carols play
F (D)                           Gm (Em)
And mild and sweet their songs repeat
Eb (C)                         Bb (G)
Of peace on earth, goodwill to men


Chorus: 1

D7/A (B7)                   Eb(C)   Bb(G)
And the bells are ringing, (Peace on earth)
                               Eb(C)   Bb(G)
Like a choir they're singing, (Peace on earth)
                         Eb(C)    Gm(Em)             F(D)
In my heart I hear them, Peace on earth, goodwill to men


Verse 2:                 
                          (Em)
And in despair I bowed my head
(C)                          (G)
There is no peace on earth I said
(D)                              (Em)
For hate is strong and mocks the song
(C)                            (G)
Of peace on earth, goodwill to men


Chorus 2:

(B7)                        (C)      (G)
But the bells are ringing, (Peace on earth)
                       (C)       (G)
Like a choir singing, (Peace on earth)
                         (C)      (Em)              (D)
Does anybody hear them?  Peace on earth, goodwill to men


Bridge:

C              
Then rang the bells more loud and deep
                              Em
God is not dead, nor doth He sleep
           D
(Peace on earth, peace on earth)
C
The wrong shall fail, the right prevail
              G                  

Silver Bells chords – Christmas Songs

 This is higher than the bing crosby version. I'm not much of a crooner. There's a lot
 of little variation you can put in to change it up. This is a tab for people that
want to make it a little more interesting but without making it very hard. This isn't
 something you can just read and sing along to. you'll probably have to get used to
the variations. I'll put different versions of the chords like this: 1A 2A. It just
means which version of "A major" i like to play in certain places. I like to swing to
the E7 from Eb7 to E7. I also like to put some of the melodies in the chords, but I
won't include any of these little things in the tab. The first chorus isn't exactly
like the others because bing sings the beginning drawn out.

If the 2D 2A part gets annoying sometimes I fit in these 4 chords in the same
space. Totally optional though. It's just there if you want to hear something else.

2E Eb 2D 2A


Enjoy!

1A 2A 3A  A7  1D 2D 3D   Dm  1E 2E E7  1Bm7 2Bm7 Bdim7  Eb

-5--0--0---5---x--0--10--1---x--x--x---7---7-----7-------x--------------|
-5--2--10--5---7--3--10--10--9--5--9---7---10----9-------4--------------|
-6--2--9---6---7--2--11--10--9--4--7---7---7-----10------3--------------|
-7--2--11--5---7--4--0---0---9--6--9---7---7-----7-------5--------------|
-0--0--0---0---0--0--x---x---x--x--x---x---x-----x-------x--------------|
-x--x----------------x---x---------0------------------------------------|

1A...          2D...
[Silver bells, silver bells]
E7                         1A   2D  2A
It's Christmas time in the city
1A           1D   1E  3A
Ring-a-ling [ring-a-ling]
1D              1E  3A 3D  Dm
Hear them ring [ting-a-ling]
E7           1Bm7     Bdim7 1A   2D 2A
Soon it will be Christmas   day.

1A              1A
City sidewalks, busy sidewalks.
           1D      2Bm7
Dressed in holiday style
       E7                       1A        2D 2A
In the air there's a feeling of Christmas
          1A              A7
[Children laughing People passing,
        1D
Meeting smile after smile
       E7                         1A    2D 2A
And on every street corner you'll hear

Chorus:
       1A    1D  1E  3A
Silver bells
1E     1D    1E  3A  3D  dm
Silver Bells
     E7        1Bm7        1A    2D 2A
It's christmas time in the city
       1A    1D  1E  3A
ring a ling
          1D    1E 3A 3D dm
here them ring
E7              Bdim7     1A     2D 2A
soon it will be christmas day

            1A
[Strings of streetlights Even stop lights
        1D             1Bm7
Blink a bright red and green
       E7                            1A         2D 2A
As the shoppers rush Home with their treasures

         1A                  A7
Hear the snow crunch See the kids rush
        1D                   E7                          1A    2D 2A
This is Santa's big day And above all this bustle you'll hear


Chorus:
       1A    1D  1E  3A
Silver bells
1E     1D    1E  3A  3D  dm
Silver Bells
     E7        1Bm7        1A    2D 2A
It's christmas time in the city
       1A    1D  1E  3A
ring a ling
          1D    1E 3A 3D dm
here them ring
E7              Bdim7     1A     2D 2A
soon it will be christmas day

Jingle Bells Tabs – August Burns Red

 -------------------------------------------------------------------------------
                             Jingle Bells - August Burns Red
-------------------------------------------------------------------------------
:Henry Orellana
horellana24

Tuning: Drop C

*, I've been wanting to play this song since it came out but no one made a tab for it
so I decided to learn this song by ear so this tab is not 100% correct, if you have any corrections let me know 
or feel free to make your own version. I wanted to post this with more than enough time for people to learn this
by Christmas, so enjoy! Sorry for not including the acoustic part in the beginning.

 Jingle Bells
e|---------------------------------------------------------------------------|
B|121212-121212-12-15--------------------------------------------------------|
G|--------------------12-14-16--12-171717-1717-1616-161616-1414-16-14-19-----|
D|---------------------------------------------------------------------------|
A|---------------------------------------------------------------------------|
E|---------------------------------------------------------------------------|

e|---------------------------------------------------------------------------|
B|121212-121212-12-15--------------------------------------------------------|
G|--------------------12-14-16--12-171717-1717-1616-1616-1919-17-14-12-------|
D|---------------------------------------------------------------------------|
A|---------------------------------------------------------------------------|
E|---------------------------------------------------------------------------|
 
 Dashing Through the Snow 
e|---------------------------------------------------------------------------|
B|---------------------------------------------------------------------------|
G|---------------------------------------------------------------------------|
D|--9-7-5-------9-7-5-2---10-9-7-4-1212-10-7-9-------------------------------|
A|5-------5-555---------7----------------------------------------------------|
E|---------------------------------------------------------------------------|

e|---------------------------------------------------------------------------|
B|---------------------------------------------------------------------------|
G|---------------------------------------------------------------------------|
D|--9-7-5-------9-7-5-2---10-9-7-121212-1212-14-12-10-7-5/12-----------------|
A|5-------5-555---------7----------------------------------------------------|
E|---------------------------------------------------------------------------|

 (During the second part of Dashing Through the Snow)
e|7p3---3h7p3---3h7p3---3h7p3---3-8p3---3h8p3---3h8p3---3h8p3---3------------|*You play the same pattern but 
B|----3-------3-------3-------3-------5-------5-------5-------5--------------|with different shapes.
G|---------------------------------------------------------------------------|
D|---------------------------------------------------------------------------|
A|---------------------------------------------------------------------------|
E|---------------------------------------------------------------------------|

e|10p5---5h10p5---5h10p5---5h10p5---5-15p10----10h15p10----10h15p10----10h15p10---|After this you go back to the
B|-----7--------7--------7--------7---------12----------12----------12----------12|Jingle Bells intro.
G|--------------------------------------------------------------------------------|
D|--------------------------------------------------------------------------------|
A|--------------------------------------------------------------------------------|
E|--------------------------------------------------------------------------------|

 Dashing Through the Snow(solo)
e|--------------------------------------------------------10-----------------| ? I'm not sure if that's where
B|--12-10-8--------5h8-8-8h10p8-10b12-10-8h10p8-----8-5---------

The Remains Of Rock Roll solo Tabs by Broken Bells

 --------------Broken Bells, "The Remains of Rock & Roll"---------------------

   This is for the orchestrate instrumental at 0:25 in "The Remains of Rock & Roll". 
It's not originally played on guitar but it's pretty nifty to play, I played it a few times 
by ear and it sounds pretty spot on.

e|------------------------------------------------------------------|
B|-10-8-10-8----------------------10-8-10-8-------------------------|
G|------------7/9--9p8p7--9p8p7--------------7/9--9p8p7--9-7-5------|
D|--------------------------------------------------------------7---|
A|------------------------------------------------------------------|
E|------------------------------------------------------------------|

Lyrics:
It's too long to wait around for everyone to decide
I'm off to the promised land if anyone needs a ride
It's a small car but we'll fit inside if we leave our bags behind
We'll entertain ourselves just watching the world go by

Is something wrong
You don't look like you're having fun
The road is long
Got to let go of the things you've done

We prefer good love to gold
And the remains of rock and roll
When the moment's right
In the middle of the night
We can almost see the way to go

So long to everyone, 'cause they don't know who we are
Tell them you're sorry, but you'll have to break their hearts
Sister you're old enough to take the wheel and drive
Your hands, your heart, your eyes, have made me realize

I hear your call
All of my senses are trend on
We're on a roll
Suddenly Earth is far below

We prefer good love to gold
And the remains of rock and roll
When the moment's right
In the middle of the night
We can almost see the way to go

Can't you see me floating
Forward, backwards
Won't you lend a hand and help me out
Hear me on your doorstep
Knocking, knocking
Won't you open up and help me out

Medicine chords – Broken Bells

 E D G A 
This ordinary room is turning
      E D G A 
into something of a prison oh
         E D G A 
and the only thing we know for certain is that
 E D G A 
don't nobody know

 C D 
You think none of this real that's
 G A 
why you never try
    C 
so tear me down or
 D 
build me up just the same

 E D G A 
   Oooh,     aaah

    E D G A 
Condone another lonely evening
             E D G A 
when you're staying up counting omens
         E D G A 
and the morning is it so disturbing that you
 E D G A 
just won't let it go?

           E D G A 
You think hurting gives you license (license)
       E D G A 
to do anything at all (anything)
         E D G 
But you gotta take your medicine (medicine)
   A E D G A 
Allow your hands to lose their grip and let it fall

 E D G A 
   Oooh,     aaah

        E D G A 
It's a wonder anyone can breathe here
          E D G A 
with the smoke to thick to cough
          E D G A 
So we've fallen as we run for cover from the
 E D G A 
bombs we're setting off


           E D G A 
You think hurting gives you license (license)
       E D G A 
to do anything at all (anything)
         E D G 
But you gotta take your medicine (medicine)
   A E D G A 
Allow your hands to lose their grip and let it fall

 E D G A 
   Oooh,     aaah

   A E D G A 
Allow your hands to lose their grip and let it fall

 C D         
So we watch another good day fading
 G A 
How we gonna leave the hangman hanging
 C D 
Girl one day you know we'll know
               E 
enough to get better


 E D G A 
   Oooh,     aaah

A Perfect World intro Tabs by Broken Bells

 This is the part which is played by synthesizer

e|-17-16-14----12--14-12---------------12----------------------9--|
B|----------14-----------14--12--14----12--14--12--14--10--12-----|
G|----------------------------------------------------------------|
D|----------------------------------------------------------------|
A|----------------------------------------------------------------|
E|----------------------------------------------------------------|

Leave It Alone chords – Broken Bells

 D#m ,  C# ,  G#  (or Capo 1 to get rid of all the sharps)

 D#m 
All this time I'd never let you go
             C# G# 
And now the same chains that I've kept you in are holding down my soul
   D#m 
I set you up, I gave you life, I dragged you out the fire
             C# G# 
And now you knocked me down you shut me out and I can see it in your eyes
             F#                                 
Somehow you got it in your head, that you can make it on your own
          G#                                 
You were sheltered, loved, and fed but you just couldn't leave it alone


[Chorus (repeat x2)]
          D#m             
Leave it alone, leave it alone
          C# G# 
Leave it alone, leave it alone


 D#m 
Well your heart was here, resting on my lap
         C# G# 
and I'd do it all again but I'm never coming back
        D#m 
Well I know I'm lying, lying in the cold
              C# G# 
Yeah there's snow on the ground, and if I know myself, I'll be leaving down the road
           F#                             
I've been all around the world but I've got nowhere to go
   G# 
I gave into this lonely life and you can't change me now so


[Chorus + Instrumental]

     D#m 
The ghosts are on the green each and every night
        C# G# 
Oh the distant light is the hardest part to take
            D#m 
That's the heart of all my pain lying in the cold
        C# G# 
Oh the distant light in a hue we can't describe, still we know


 D#m ,  C# ,  G#  [x2]


          D#m 
Could it all be over now? We've seen it all the while
            C# G# 
There's no dimension to the clouds, and the moon and world around
            D#m 
That's the heart of all my pain, cause I don't wanna go
       C# G# 
Oh the distant light in a hue we can't describe, still we know

Control chords – Broken Bells

 [Intro]
 Am E G D F Am 
Well it started as a game
       E 
using pleasure using pain
        G D 
We got higher and higher that way
        F 
But it didn't work today
      Am 
Even though it felt so right
           E 
Nothing's permanent in life
         G D 
so it's useless to hold on so tight

                      F 
You've gotta give it up give it up give it up 
    Am 
Ohhh give it up give it up
    E D 
Ohhh give it up give it up you lost control
      
cause nothing stands around too long

        Am 
so now everything has changed
          E 
and your heart's been rearranged
       G D 
until nothing we've known here remains
         F 
and you say you shouldn't stay
            Am 
as you're taking off your clothes
                E 
you think it's loving I suppose
               G D 
it's just you endlessly needing control

                           F 
Well you've gotta give it up give it up give it up 
    Am 
Ohhh give it up give it up
    E D 
Ohhh give it up give it up you lost control
      
cause nothing stands around too long


 F Am 
  cause nothing stands around too long
                           E 
nothing stands around too long
             D 
you lost control

you gotta give it up

[Outro (repeat as desired]
 F Am E D

No Matter What Youre Told chords – Broken Bells

 -----------------------------------------------------------------------------
                   Broken Bells - No Matter What You're Told
-----------------------------------------------------------------------------
: Marcus Marchal (Warflojd)
 mackan_003_94@hotmail.com

Tuning: Standard
No capo

'No Matter What You're Told' is a song from Broken Bells new album called 'After The
Disco'. I couldn't find any lyrics online so I had to listen carefully and try to write the
lyrics down. I can't really hear what James Mercer is singing at some parts in the song 
so the lyrics aren't a 100 percent correct. I did my best anyway. Feel free to comment
and rate!

Intro:
 Em  -  D  -  Em  -  G Em  -  D  -  Am  -  C 
(x2)

Verse 1:
 Em D 
You're falling way behind
 Em G 
we're given just a little bit of time
 Em D 
cause when we're all exposed
                     Am C 
do you wanna be the first in line?

 Em D Em G 
Loves in this crowd, the smoke they blow can make your head pop
         Em D Am C 
the new goal is playing its tricks on you again, and again

Chorus:
 G D 
We blow all our chances thinking 
    G Em G 
we know all the answers and so it goes
             D 
but all the changes, nothing changes
 D 
no matter what you're told

 Em  -  D  -  Em  -  G Em  -  D  -  Am  -  C 

Verse 2:
 Em D 
So you're picking up signs
 Em G 
you're scared you might be losing your mind
 Em D 
and all the hopes of any shots
 Am C 
you gotta leave the new behind

 Em D Em G 
You're making light of this I know and it's a shame
 Em D Am C 
that you're silly sentimental heart is to blame

Chorus:
 G D 
We blow all our chances thinking
    G Em G 
we know all the answers and so it goes
             D 
but all the changes, nothing changes
 D 
no matter what you're told

 Em  -  D  -  Em  -  G Em  -  D  -  Am  -  C G D Em 
Aaah Aaah Aaah

Bridge:
 G D 
You don't want the end of it, you're lost and found
            Em 
you better hold on tight
 G D 
I hope that it evens when you're upside down
            Em 
you better hold on tight
 G D 
I don't wanna be here when you hit the ground
             Em 
you need to hold on tight

Chorus:
 G D 
We blow all our chances thinking
    G Em G 
we know all the answers and so it goes
             D 
but all the changes, nothing changes
 D 
no matter what you're told

e|--------------------------------------------------------------------------|
B|--------------------------------------------------------5-----------------|
G|-----------------------------------7-----------------------7--4-----------|
D|-----------5--7--------------5--7--------------5--7--------------5--7-----|
A|-----7--7--------5-----7--7--------------7--7--------5-----------------7--|
E|--7

Lazy Wonderland chords – Broken Bells V2

 C F 
I'm down by the fire
 C F 
At the ocean side
 C Am Bb F C F C F 
Just waiting for that underwater world to say good night


 C F 
Don't you hear that sound?
 C F 
From that tide and send
 C Am Bb F C F C F 
They'll tell us to keep rowing and rowing if we can
 C Am Bb F C F C F 
So I've learnt to keep my head in this lazy wonderland

 Am       
Well you had to know
 Dm 
that I had to know
 Am C G 
The tricks for us not to be found out
 Am Dm 
There's a place we can go
 Am C G 
The trip is on but we can find a way

 Cm Fm 
(Tonight we'll go)
 Cm Fm 
Laughing all the way, my love
 Cm Fm 
(Tomorrow we'll go)
 Cm Fm C F C F 
Back in time to live today

 C F 
To all the men who ride
 C F 
in the morning light
 C Am Bb F C F C F 
? at the ending of another lovely night

 C F C F 
And I've misplaced my mind, don't know how or why
 C Am Bb F C F C F 
and when it wonders back I hope it's still a friend of mine

 Am 
Well you had to know
 Dm 
that I had to know
 Am C G 
the tricks for us not to be found out
 Am Dm 
and there's a place we can go
 Am C G 
The trip is on but we can find a way

 Cm Fm 
(Tonight we'll go)
 Cm Fm 
Laughing all the way, my love
 Cm Fm 
(Tomorrow we'll go)
 Cm Fm 
Back in time to live today

Lazy Wonderland chords – Broken Bells

                                           Artist - Broken Bells
                                         ***********************
                                         Song - Lazy Wonderland 
                                        ************************
                                         Album - After The Disco 
                                        *************************
                                           - Ayreon77
                                         **********************


Sounds better doing the Barre chords

 Bb  = 688766
 Eb  = 068886
 Ab  = 466544

INTRO
******
 Bb Eb  X2

-------------------------------------------
VERSE 1
********
 Bb Eb Bb  
   I'm down by the fire
        Eb Bb 
At the ocean side
      Gm Ab Cm                     
Just waiting for that underwater world to say goodnight

-------------------------------------------
 Bb Eb  X2
-------------------------------------------
VERSE 2
********
 Bb Eb Bb 
   Don't you hear that sound
          Eb Bb 
From the tide and sand
         Gm Ab Cm 
They'll tell us to keep rolling and rolling if we can

-------------------------------------------
 Bb Eb  X2
-------------------------------------------

 Bb Gm Ab Eb Bb 
   So I've learned to keep my head in this lazy wonderland

-------------------------------------------
 Bb Eb  X2
-------------------------------------------
CHORUS
*******
             Gm Cm 
Well you've had to know that I had to know
     Gm Bb F 
The trick's for us not to be found out
 Gm Cm 
There's a place we can go
     Gm Bb F F# 
The trip is on but, we can find a way
     Eb Bb Eb Bb 
Tomorrow we know, laughing all the way my love
     Eb Bb F#            
Tomorrow we know, back in time to live today

-------------------------------------------
 Bb Eb  X2
-------------------------------------------
VERSE 4
********     
 Bb Eb Bb Eb Bb 
   You on my ride in the morning light
       Gm Ab Cm 
Lying stubborn at the ending of another lovely night

-------------------------------------------
 Bb Eb  X2
-------------------------------------------
VERSE 4
********
 Bb Eb Bb 
   I misplaced my mind
            Cm Bb 
Don't know how unwise
     Gm Ab Cm  
And when it wanders back I hope it's still a friend of mine

-------------------------------------------
 Bb Eb  X2
-------------------------------------------
CHORUS
*******
             Gm Cm 
Well you've had to know that I had to know
     Gm Bb F 
The trick's for us not to be found out
 Gm Cm 
There's a place that we can go
     Gm Bb F F# 
The trip is on but, we can find a way
     Eb Bb Eb Bb 
Tomorrow we know, laughing all the way my love
     Eb Bb F# Ab Bb 
Tomorrow we k

Sugarcane Tabs by Sleigh Bells

 (Intro) Guitar 2- I'm not too sure about this part...Feel free to give corrections...
e|-------------------------------------|
B|-8-11-10-----8-11-10-----------------|
G|---------9-----------8---------------|x2
D|-------------------------------------|
A|-------------------------------------|
E|-------------------------------------|

e|----------------|
B|-8-11-10--------|
G|----------------|
D|----------------|
A|----------------|
E|----------------|

(Intro)Guitar 1
e|---------------------------------------------------------|
B|---------------------------------------------------------|
G|-5--5--5-5-5---------------9--9--9-9-9-------------------|
D|-5--5--5-5-5--7--7--7-7-7--9--9--9-9-9--6--6--6-6-6------|X2
A|-3--3--3-3-3--7--7--7-7-7--7--7--7-7-7--6--6--6-6-6------|
E|--------------5--5--5-5-5---------------4--4--4-4-4------|

(Verse 1)
e|--------------------------------------------------------|
B|--------------------------------------------------------|
G|-5--5--5-5-5---------------9--9--9-9-9------------------|
D|-5--5--5-5-5--7--7--7-7-7--9--9--9-9-9--6--6--6-6-6-----|X3
A|-3--3--3-3-3--7--7--7-7-7--7--7--7-7-7--6--6--6-6-6-----|
E|--------------5--5--5-5-5---------------4--4--4-4-4-----|

e|------------------------------------------------------|
B|------------------------------------------------------|
G|-5--5--5-5-5-------------9--9--9-9-9------------------|
D|-5--5--5-5-5--7-x--------9--9--9-9-9--6--6--6-6-6-----|
A|-3--3--3-3-3--7-x--7/0---7--7--7-7-7--6--6--6-6-6-----|
E|--------------5-x---------------------4--4--4-4-4-----|

(Chorus)"On the deep, deep end you become so desperate to win..."
e|--------------------------------------------------------|
B|--------------------------------------------------------|
G|-5--5--5-5-5--7--7--7-7-7-------------------------------|
D|-5--5--5-5-5--7--7--7-7-7--7--7-7-7-7-6-6-6-6-----------|x2
A|-3--3--3-3-3--5--5--5-5-5--7--7-7-7-7-6-6-6-6-----------|
E|---------------------------5--5-5-5-5-4-4-4-4-----------|

e|----------------------------------------------------|
B|----------------------------------------------------|
G|-5--5--5-5-5--7-7-7-7-7-9-9-9-9-9-10-10-10-10-10----|
D|-5--5--5-5-5--7-7-7-7-7-9-9-9-9-9-10-10-10-10-10----|x2
A|-3--3--3-3-3--5-5-5-5-5-7-7-7-7-7-8--8--8--8--8-----|
E|----------------------------------------------------|

(After The Chorus) "Beware,Beware,Beware,Beware..."
e|---------------------------------------------------------|
B|---------------------------------------------------------|
G|-5--5--5-5-5---------------9--9--9-9-9-------------------|
D|-5--5--5-5-5--7--7--7-7-7--9--9--9-9-9--6--6--6-6-6------|X2
A|-3--3--3-3-3--7--7--7-7-7--7--7--7-7-7--6--6--6-6-6------|
E|--------------5--5--5-5-5---------------4--4--4-4-4------|

e|----------------------------------------|
B|----------------------------------------|
G|-5--5--5-5-5---------------9--9--9-9-9--|
D|-5--5--5-5-5--7--7--7-7-7--9--9--9-9-9--|
A|-3--3--3-3-3--7--7--7-7-7--7--7--7-7-7--|
E|--------------5--5--5-5-5---------------|

(Verse 2)A bit different than the first in terms of order...
e|---------------------------------------------------------|
B|---------------------------------------------------------|
G|-5--5--5-5-5---------------9--9--9-9-9-------------------|
D|-5--5--5-5-5--7--7--7-7-7--9--9--9-9-9--6--6--6-6-6------|
A|-3--3--3-3-3--7--7--7-7-7--7--7--7-7-7--6--6--6-6-6------|
E|--------------5--5--5-5-5---------------4--4--4-4-4------|

e|------------------------------------------------------|
B|------------------------------------------------------|
G|-5--5--5-5-5-------------9--9--9-9-9------------------|
D|-5--5--5-5-5--7-x--------9--9--9-9-9--6--6--6-6-6-----|
A|-3--3--3-3-3--7-x--7/0---7--7--7-7-7--6--6--6-6-6-----|
E|--------------5-x---------------------4--4--4-4-4-----|

e|---------------------------------------------------------|
B|---------------------------------------------------

Treats Tabs by Sleigh Bells V2

 -------------------------------------------------------------------------------
                             Treats - Sleigh Bells
-------------------------------------------------------------------------------
: miles sanders
 thegreatmdog

Tuning: Standard

I split it into two parts. On the intro, guitar I uses a tremolo effect

intro
guitar I
e|--------------------------------|
B|--------------------------------|
G|--------------------------------|
D|--------------------------------|
A|---------3---4----------0---1---|
E|---0-1--------------1-----------|
guitar II
e|--------------------------------|
B|--------------------------------|
G|---------9---10---------9---7---|
D|---6-7--------------7-----------|
A|--------------------------------|
E|--------------------------------|

Verse
Guitar I
e|-----------------------------------|
B|-----------------------------------|
G|----------5--6---------------------|
D|---3-3-3--5--6----3-3--7--8--------|
A|---3-3-3--3--4----3-3--7--8--------|
E|---1-1-1----------1-1--5--6----0---|

Guitar II plays this right before and after 
the vocals and then Guitar I starts to play it
e|-----------------------------|
B|-----------------------------|
G|---9b-9b-9b-9b-9b-9b-9b-9b---|
D|-----------------------------|
A|-----------------------------|
E|-----------------------------|

Guitar II plays this in the background of the verses 
and as a solo a after the 2nd verse
e|--------------8-8-9--9-8-------------------------------|
B|-------------------------11--10-11-10-8-----10-10-11---|
G|---10-10-10-----------------------------10-------------|
D|-------------------------------------------------------|
A|-------------------------------------------------------|
E|-------------------------------------------------------|

Carol Of The Bells Tabs by Mykola Leontovych

 Carol of the Bells
This whole song can be played by 3 guitars minimum or up to 5 guitars depending on how 
full you want it to sound. Let me know what you think! Please post comments or 
corrections if I'm wrong! Enjoy it! thx! :D

E----------------|
B----------------|
G---0------------| 2x
D-------3--1--0--|
A----------------|
E----------------|

E---------------|---------------|
B---------------|---3--1--3-----|
G---3--2--0--3--|------------3--|
D---------------|---------------|
A---------------|---------------|
E---------------|---------------|

E---3--3--1-----------------------------------------|
B------------4--3--3--1-----------------------------|
G------------------------3--1--1--3--1--3--2--0--3--|
D---------------------------------------------------|
A---------------------------------------------------|
E---------------------------------------------------|

E---------------------------------|
B---------------------1--3--1-----|
G------------0--2--3-----------3--|
D---0--2--4-----------------------| repeat second measure
A---------------------------------|
E---------------------------------|

The Changing Lights chords – Broken Bells

 Hi !  in here !
Amazing brand new Broken Bells Songs !
Song version from this video : https://www.youtube.com/watch?v=cX0cJTwxF9g
Comments are welcome. Peace from France. Jo.


[Opening part]
 Em Em Em Em 


[Verse]
 Em D A C 
  What did the stone wash away
                 G B7 Am Am 
Are you bailing out, out of the plans we already made
                    Em D A C 
It won't bother me now, and you know I'll be okay
                     G B7 Am Am 
You gotta lead your life, but you're not sure you know the way
          Em D A C 
Well you want to walk in white, you wanna sin but you're too shy
        G B7 Am Am 
So the candle just keeps burning down on you


[Chorus]
     C D E E 
The cards are on the table, I'm here tonight
     C D E E 
And I don't need anything from you
 C D E E 
Down on the bowery, the changing lights
     C D E E 
And I'll still be waiting here for you


[Bridge]
 Em Em 


[Verse]
 Em D A C  
 I saw that look on your face
                   G B7 Am Am 
You don't need me now, and sometimes you're wondering if it's off
                 Em D A C 
Just another mistake, and why don't you just walk away
                       G B7 Am Am 
You gotta measure the cost, what have you gain when you lost
     Em D A C 
Lay off and wonder why, you wanna win but you won't fight
        G B7 Am Am 
So the candle just keeps burning down on you


[Chorus 2x]


[Ending instru]
 C D E E      [*4]