Tag: ben

Philosophy chords – Ben Folds Five Vsion 2

 INTRO  
 C Cmaj7 C7 C6 Dm7 G Dm7 G C Cmaj7 C7 C6 Dm7 G Dm7 G C F 
Won't you look up at the skyline
        C Em 
At the mortar, block, and glass
     F D/F# G 
And check out the reflections in my eyes
          C F 
See they always used to be there
      C Em 
Even when this was all was grass
       F D/F# G 
And I sang and danced about a high-rise

(Pre-Chrous)
              F G 
And you were laughing at my helmet hat
 F Dm7 G  
Laughing at my torch

(Chorus)
 C Cmaj7 C7 
Go ahead and laugh all you want
   C6 Dm7 G Dm7 G    
I got my philosophy
               C 
And I trust it like the ground
  C6 Dm7 G   
That's why my philosophy
          Dm7 G C/G G7    
Keeps me walking when I'm falling down

(Verse2)
    C F 
I see that there is evil
       C Em 
And I know that there is good
           F D/F# G   
And the in-betweens I never understood
           C F 
Would you look at me I'm crazy
       C Em 
But I get the job done
    F D/F# G 
I'm crazy but I get the job done


(Chorus)
 C Cmaj7 C7 
Go ahead and laugh all you want
   C6 Dm7 G Dm7 G    
I got my philosophy
               C Cmaj7 C7 
And I trust it like the ground
  C6 Dm7 G    
That's why my philosophy
          Dm7 G C/G G7    
Keeps me walking when I'm falling down

(Bridge)
 Am Eaug/G# 
I pushed you cause I loved you guys
 Am7/G Am6/E 
I didn't realize
                  Gm C Bb C Bb C Bb   
That you weren't having fun
       F                  
And I dragged you up the stairs
       G 
And I told you to fly
          F 
You were flapping your arms
          G Am 
Then you started to cry, you were too high
     Bb 
Too highhhhhh


 C Cmaj7 C7 C6 Dm7 G Dm7 G  

(Verse 3)
         C F 
Now you take this all for granted
              C Em 
You take the mortar, block, and glass
          F D/F# G 
And you forget the speech that moved the stone
          C F     
And it's really not that you can't see
     C Em 
The forest from the trees
  F D/F# G 
You just never been out in the woods alone


(Chorus)
 C Cmaj7 C7 
So you can laugh all you want to
     C6 Dm7 G Dm7 G   
But I've got my philosophy
                C Cmaj7 C6 
And I love you you're my friend
                  Dm7 G      
But you got no philosophy
         Dm7 <span

She Treats Me Well Tabs – Ben Howard

 -----------------------------------------------------------------
                She Treats Me Well - Ben Howard
-----------------------------------------------------------------

 : Aeonoptic
 aeonoptic

****Tuning: CGBbGFBb******

Capo 5 except 6th string (sounds as CCEbCBbEb, open Cm7; tab is relative to capo for all covered strings)
x= thumb slap

Intro/verses:
Bb|------0-0----0-----|-------------------|--0----0--|------0-----0----|---------------0|
F |------0----0---0---|--------2-2--------|-5-h7--7p5|------------0----|----------------|
G |---2--2----2---2---|------0-0-0-2p0----|3---------|---2--------2----|--------0----0--|
Bb|------0----0-------|----0--------------|----------|------------0----|----0h7---------|
G |-------------------|----------------0--|----------|-----------------|----------------|
C |10---------------10|7h8-----0---------0|----------|10-------10----10|7h8-------0-----|

Bb|---------------|-------0------0----|--------------0----|--0---0-0------|
F |---------------|--------------0----|----------0--------|-5-h7-7-7p5----|
G |---------------|---2----------2----|------0-----0---0--|3--------------|
Bb|--4p2-----2p0--|--------------0----|----0--------------|---------------|
G |---------------|----------0h3------|-------------------|---------------|
C |0-----x-0-----x|10---x----------x-0|7h8----0----------x|------------x-0|

Bb |------0---------7--|----------0-0-------|
F |----------------0--|----------2---2--5p2|
G |---2----2----2-----|------0---0---------|
Bb|-------------------|----0-----0---------|
G |-------------------|--------------------|
C |10--------10------x|7h8-----0-----------|

Basically the same under the verses with some variation in picking

Chorus:
Bb|--------|---------|--------|---------7-5-4|---------7-5-4|--------|---------|------|---+7-|
F |--------|---------|--------|--------------|--------------|--------|---------|---0h2|---+7-|
G |--------|---------|--------|--------------|--------------|--------|---------|---0--|---+7-|
Bb|10-9----|---------|10-9----|--------------|--------------|10-9----|---------|------|---+7-|
G |--------|---------|--------|--------------|--------------|--------|---------|------|------|
C |5--5-3-x|0-x-10-x-|5--5-3-x|0-x-10-x------|0-x-10-x------|5--5-3-x|0-x-10-x-|0-----|0-----|
 
There's a second guitar arpeggiating under the chorus, if you want to emulate it
simply arpeggiate the capoed strings

Next verses are again variations of the above, and chorus is identical

Outro:
Bb|--+7----7br9-------|---+7----7br9-----|--+7----7br9-------|--+7-----------|
F |-----+7------7br8p5|------+7------7br8|-----+7------7br8p5|-----+7-8p7-5-5|
G |-------------------|------------------|-------------------|---------------|
Bb|-------------------|------------------|-------------------|---------------|
G |-------------------|------------------|-------------------|---------------|
C |0------------------|0-----------------|0------------------|0--------------|

Bb|-----------------5-5|----------------5--|-----------------5-5|------------------5|
F |-----------------0-0|----------------0-0|-----------------0-0|------------------0|
G |-----------------0-0|----------------0--|-----------------0-0|------------------0|
Bb|----7---4-----2--0-0|----7---4-----2-0--|----7---4-----2--0-0|----7---4---4p2p0--|
G |--7---5-----3-------|--7---5-----3------|--7---5-----3-------|--7---5------------| x2
C |0---------x---------|0---------x--------|0---------x---------|0---------0--------|

The remainder of the outro is essentially just this with harmonics instead of
the descending plucked bit, which I can't quite work out,
but I believe it's on the 7th and 5th fret

| /  slide up
| \  slide down
| h  hammer-on
| p  pull-off
| ~  vibrato
| +  harmonic
| x  Mute note

200 Am chords – Ben Kweller

 -------------------------------------------------------------------------------
                             "2:00 AM - Meat Purveyors"
                                                  ~ Ben Kweller
-------------------------------------------------------------------------------
: Ernie

This is Mr. Kweller's cover of a Meat Purveyors song.  I haven't been able to listen to the original so I'm
not sure if the lyrics, chords, or key match up but it's probably close.

Comment with corrections and, if I agree, I'll give you kudos!

Use fills responsibly!

Fill 1:                Fill 2:

e|--------------2----------------0----------|
B|--------------3----------------1----------|
G|--------------2----------------0----------|
D|-----2--0-----0------------0---2----------|
A|-----------3---------2--3-(5)--3----------|
E|------------------------------------------|

 D D D G C G D G 
Got a stale boat of beer nuts
       C G 
Some old cigarette butts
                        D 
All I can show for my day
          G 
Just a warming this bar stool 
    C G 
Talking a damn fool
                          D 
Watching the hours melt away
        C                            Fill 2
And I know I shouldn’t call in the shape I am in
          G D G 
But it’s 2 AM already again

 D D D G C G D G 
Life in the beer glass
     C G 
Thinking bout the days past
                                  D 
Its no way, no way to pass your time
    G                   
Shouldn’t pick up the phone
              C G 
When I'm a drunk and alone
                                    D  
Cuz my mind plays tricks when I’m high
         C                             Fill 2
So one more shot of whiskey fore the room starts to spin
          G D C 
Cuz it’s 2 AM already again

 D D D C              
Knocked down and drag outs
     G 
Hangovers and blackouts
      C D       
No wonder she left me for him
          C               Fill 2
And I'll wake up tomorrow feeling like sin
          G D C 
Cuz it’s 2 AM already again

 D D D G D C 
Yeah it’s 2 AM already again

 D D D G D C 
it’s 2 AM already again

 D D D G

Long Journey Home chords by Ben Babbitt

 Capo on 1

I'll time the intro out in beats for you, but if you're confused, listen to the song.
Intro and played between verses:
G (4 beats) \
C (2 beats) | - Play this three times
G (2 beats) /

finish with:
D (4 beats)
G (4 beats)


 G 
Black smoke's a-rising and it surely is a train
 C G 
Surely is a train boys, surely is a train
 G 
Black smoke's a-rising and it surely is a train
     D G 
I'm on my long journey home

| [play intro again]
| G (4 beats) \
| C (2 beats) | - Play this three times
| G (2 beats) /
|
| finish with:
| D (4 beats)
| G (4 beats)

 G 
Lost all my money but a two dollar bill
 C G 
Two dollar bill boys, two dollar bill
 G 
Lost all my money but a two dollar bill
     D G 
I'm on my long journey home

| [play intro again]
| G (4 beats) \
| C (2 beats) | - Play this three times
| G (2 beats) /
|
| finish with:
| D (4 beats)
| G (4 beats)

 G 
Homesick and lonesome and I'm feeling kind of blue
 C G 
Feeling kind of blue, boys, feeling kind of blue
 G 
Homesick and lonesome and I'm feeling kind of blue
     D G 
I'm on my long journey home

| [play intro again]
| G (4 beats) \
| C (2 beats) | - Play this three times
| G (2 beats) /
|
| finish with:
| D (4 beats)
| G (4 beats)

 G 
It's dark and a-raining and I've got to go home
 C G 
Got to go home, boys, got to go home
 G 
It's dark and a-raining and I've got to go home
     D G 
I'm on my long journey home

Where Could I Go solo Tabs by Ben Harper And The Blind Boys Of Alabama

 ---------------------------------------------------------------------------------------------------
                               Artist - Ben Harper & The Blind Boys of Alabama
                              *************************************************
                                          Song - Where could I go
                                         *************************
                                            - Ayreon77
                                          **********************
---------------------------------------------------------------------------------------------------
Tuning = Standard



e|--b-------|-------10---p---------------------------|------------------------------|
B|-13-~~~~~-|--b-10----13-10--brp--------h-------p---|--brp--------h-----h---p------|
G|----------|-12-------------12--10----10-12---12-10-|-12--10----10-12-10-12--10----|
D|----------|-----------------------12---------------|--------12-----------------12-|
A|----------|----------------------------------------|------------------------------|
E|----------|----------------------------------------|------------------------------|

                                              b            
e|----------------------------|-------10--b--13~~~~~~~--13~~~~~-|-10-10--b-|
B|-----------------brp--------|--b-10----13---------------------|-------13-|
G|----10----10----12--10----s-|-12------------------------------|----------|
D|-12----12----12--------12-\-|---------------------------------|----------|
A|----------------------------|---------------------------------|----------|
E|----------------------------|---------------------------------|----------|


e|-------10---p-------------|-------------------------------------------------|
B|--b-10----13-10--brp------|---h-----h-----------h-----h-----------h---------|
G|-12-------------12--10----|-10-12-10-12-10----10-12-10-12-10----10-12-10----|
D|-----------------------12-|----------------12----------------12----------12-|
A|--------------------------|-------------------------------------------------|
E|--------------------------|-------------------------------------------------|


e|-------10---p----------------|--------------------------|----------------|
B|--b-10----13-10--brp---------|---------------h----------|----------------|
G|-12-------------12--10----10-|-----s---10--10-12-10---s-|-s------------s-|
D|-----------------------12----|-8-10\12--------------12\-|-\10-10-10-10-\-|
A|-----------------------------|--------------------------|----------------|
E|-----------------------------|--------------------------|----------------|

Petite Soeur chords – Ben Loncle Soul

 capo 1

                                        
Petite sœur
Ben l'oncle soul



 G B7 Em C 
Comment te le dire, ça fait d'la peine
 G E7 A D 
Je n'vais pas te mentir, malgré l'ampleur du phénomène
 G B7 Em C 
J'ai pas le souvenir, de t'avoir vu zen, non
 G E7 A D 
Tu les fais s'enfuir sans deviner ce qui les gênent



 C G C G 
Ça reste entre nous, vivre avec toi est un cauchemar
 B7 Em C A7 
Ils t'ont laissée, ouais c'est tous des connards, ouais
 D 
J'aimerais t'aider, j'aimerais te croire



 G Bm Em C 
J'te connais par cœur, en long, en large, en travers, petite sœur
                    G Bm Em C 
J'te connais par cœur, J'te connais par cœur
           G    F/F#/G
Petite sœur



 G B7 Em C 
Même Cupidon a lâché l'affaire
 G E7 A D 
Tu as comme un don pour les pousser à l'adultère
 G Bm Em C 
Non non ça n'tourne pas rond, tes amour ont un air
 G E7 A D 
D'incarcération, quand tu t'y mets pour être clair



 C G C G 
Ça reste entre nous, te supporter est une victoire
 B7 Em C A7 
Ils t'ont laissée, tiens prends donc un mouchoir
 D 
J'aimerais t'aider, j'aimerais te croire



 G Bm Em C 
J'te connais par cœur, en long, en large, en travers, petite sœur
                    G Bm Em C 
J'te connais par cœur, J'te connais par cœur
Petite sœur

 G Bm Em C 
J'te connais par cœur x5.       

Its Never Too Late chords – Ben Gibbard

 Song: It's Never Too Late
Artist: Ben Gibbard
: Crocky


I just watched the film Laggies and this is the song for the credits.
Turns out Ben Gibbard Scored the whole film and this is a new song he wrote for it.


Tabbed it from this vid - http://youtu.be/KaELgYmky9w

But this vid has better audio - http://youtu.be/4xAc5JkCq3Y

Check out the videos to see his strumming pattern, this tab is pretty loose.
As ever, all comments are welcome, hope you enjoy the song as much as I do.

Standard Tuning - Capo 5th

The chord shapes you need are...

 C  -  Cmaj9/B  -  Am  -  G  (open B-string) -  D  -  Em  -  B7  -  A7 

Ok Here we go.


Intro

 C   -   Cmaj9/B   -   Am   -   Am   |
                             | x2
 C   -   Cmaj9/B   -   G   -   G     |


 D   -   D   -   D   -   D 


Verse

 G Em 
Don't, don't turn around
         B7 C 
There's nothing left to be found
           G Em 
Where you feigned and played along
      B7 C 
In a place you thought you belonged

    G Em 
So when, when did you turn
 B7 C 
When did you wake this concern
          G Em 
But your shadow could not be outrun
    B7 C 
It defeats you before you've begun



Chorus
 G 
This book you never read
 C 
Is now long overdue
 G 
An errant satellite
 C 
That's lost behind the moon
 Em D C G A7 C 
But don't ever say that it's too late to cure your lonely heaaaart



Verse
 G Em 
Walk, quicken your pace
 B7 C 
Scale every wall and gate
 G Em 
No-one would hold you down
 B7 C 
Get lost, lost to be found


Chorus
 G 
This river never rests
 C 
It flows through you and me
 G 
We are the clouds above
 C 
We are the deepest sea

 Em D C G         
So don't ever say that it's too late to cure your lonely heart
 Em D C G         
Don't ever say that when it breaks it just feels shattered apart
 Em D C G A7 C 
Don't ever say that it's too late to cure your lonely heaaaaaaart


Outro

 G G G G C Cmaj9/B Am

Evergreen chords – Ben Howard

 [CAPO 3RD]

 Am Em G F 
Christmas flared amongst the somewhere cold deep evergreen
 Am Em G F 
Built a world without your love and I built it in me
 Am Em G F 
Christmas flared amongst the somewhere cold deep evergreen
 Am Em G D 
Built a world without your love, now I'm all out at sea

 C G G/F# C 
Take me back to the catacombs, I am tempted by her love
 C G G/F# C 
Bluest eyes against my own skin, I have never been so caught up
 C G G/F# C 
Looking around I see memories, what it was, oh, what it was
 C G G/F# C 
There in the crowds you said something but I can't remember what

 C     
And my mother cursed the town for 
 Am Em G F 
Closing me down
 Am Em G F 
Closing me down

Interlude:  Am Em G D C G G/F# C 
Take me back to the catacombs, I am tempted by her love
 C G G/F# C 
Bluest eyes against my own skin, I have never been so caught up
 C G G/F# C 
Looking around I see memories, what it was, oh, what it was
 C G G/F# C 
There in the lights you said something but I can't remember what

And my mother cursed the town for 

 Am Em G F 
Closing me down
 Am Em G F         
Closing me down

Closing: Am

Small Things Live Tabs – Ben Howard

 -------------------------------------------------------------------------------
                             SMALL THINGs - Ben Howard
-------------------------------------------------------------------------------
: Montana


Tuning:CGA#A#FC

 Intro/Verse:
e|---------------------------------+12-----------------------------------+7------|
B|-------b7--5--0---0h2------------+12---------b7--5--0--0h2-------------+7------|
G|--------------------------------(+12)---------------------------------(+7)-----|
D|-------------------------------------------------------------------------------|
A|-----------------------------9-----------------------------------7--6----------|
E|---7--------------3-------10---9---------7-------------3------8----------------| (x6)

   Chorus
    note: the fourth time through he just ends on 7th fret and pauses before second vets
e|--------------------------------------------|
B|----------------0-----0-----0--- --0--------|
G|------0----0--------------------------------|
D|--------------------------------------------|
A|--------------------------------------------|
E|---7-----7----10---10----9-----9---------7--| (x4)

 2nd Verse:
e|---------------------------------+12-----------------------------------+7------|
B|-------b7--5--0---0h2------------+12---------b7--5--0--0h2-------------+7------|
G|--------------------------------(+12)---------------------------------(+7)-----|
D|-------------------------------------------------------------------------------|
A|-----------------------------9-----------------------------------7--6----------|
E|---7--------------3-------10---9---------7-------------3------8----------------| (x4)

 (Chorus)
    song starts to speed up here
    pinky finger laying across the 12th and 19th frets lightly to create harmonic sound
note: my X's mean slap ..because i don't know how else to tab that..oops..sorry if its confusing

   has the world                                gone mad
  all          these                small things                they gather round       they gather
e|---------------X-----12----X--------------X-----12----X-------------X-----19----X------------X--|
B|---------------X-------12--X--------------X--------12-X-------------X-------19--X------------X--|
G|-----------12--X-----------X----------12--X-----------X---------19--X-----------X---------19-X--|
D|--------12-----X-----------X--------12----X-----------X-------19----X-----------X-------19---X--|
A|---12-12-------X--12-------X---12-12------X--12-------X--14-14------X--14-------X--14-14-----X--|
E|---------------X-----------X--------------X-----------X-------------X-----------X------------X--|
   or is it me
   round          me
e|-----19-----X-------------X-----19-----X-------------X-----19-----X-|
B|--------19--X-------------X--------19--X-------------X--------19--X-|
G|------------X----------19-X------------X---------19--X------------X-|
D|------------X--------19---x------------X-------19----X------------X-|
A|--14--------X--13-13------X--13--------X--13-13------X--13--------X-|
E|------------X-------------X------------X-------------X------------X-|  (x4)

    quick transition:
e|------17---14---12-------------|
B|-------------------------------|
G|-------------------------------|
D|-------------------------------|
A|---13----13---13---------------|
E|-------------------------------|
   and i can't see my love
e|---------X--------------X---------X-----------X--------------X--------------------|
B|---------X--------------X---------X-----------X--------------X--------------------|
G|---------X--------------X---------X-----------X--------------X--------------------|
D|------12-X-12-------12--X------12-X-12-----12-X--12-------12-X-12--------12-------|
A|---------X--------------X---------X-----------X--------------X--------------------|
E|--7-7----X------7-7-----X---7-7---X-----7-7---X------10-10---X-------10-10--------|

e|----------X-------------X------------X------------X-----------X---

Me And My Friend Time chords – Ben Howard

 Pretty sure this is correct, any corrections say below. Very old Ben Howard song. Listen for timings- 


Intro- Am-F-G

Verse-

Wandering why,wondering why you came, into my life 
  Am F G 

Wondering why, wondering why you braved the rain, just to see my eyes 

  Am F G 

~~~~

Pre chorus chord- F 


Oh but you'll be gone just as soon, as the water rises
   C Am F 

and ill stay sleeping cos i know, when i wake there's only silence 
  C Am F  

~~~~~

Evergreen Tabs – Ben Howard

 tuning-
C
F
A#
F
F
c

intro+ verse
Final chord (9,7) is strummed. Listen to it for timings.

C|--0-----------------------7-------10------9---|
F|----10--9--12--10--9--0-----5h7--9-------7----|
A#|---------------------------------------------|
F|----10--9--12--10--9--0-----------------------|
F|-------------------------------------12-------|
C|----------------------------------------------|

chorus (strummed)

C|--3--10--9--10----|
F|-----9---7--9-----|
A#|-----------------|
F|------------------|
F|--2---------------|
C|------------------|

Only You And Me chords – Ben Cocks

 Hi :)
This is a really easy song and it sounds great.

*CHORDS FOR THE UKULELE VERSION*
    Bb Dm Gm Eb 
A--1--     A-----     A--1--     A--1--
E--1--     E--1--     E--3--     E--3--
C--2--     C--2--     C--2--     C--3--
G--3--     G--2--     G-----     G-----
 

 Bb Dm 
I see two people sitting
        Gm Eb 
By the sea and look at the view
      Bb Dm 
They saying nothing to each
        Gm Eb 
Other cause they don't need to
    Bb Dm Gm Eb 
And all I want to do is sit down and talk to you
   Bb Dm Gm Eb 
All I want to do is sit here and look at you
 Bb Dm 
And in a couple of days it's
       Gm Eb 
Better that we can walk away
  Bb Dm Gm Eb 
Walking hand in hand along the beach like every day
    Bb Dm Gm Eb 
And all I want to do is walk along the shore with you
   Bb Dm Gm Eb 
All I want to do is share all my thoughts with you

 Bb Dm Gm Eb      x 4

    Bb Dm     
If you were here I know that
            Gm Eb 
We'd be putting the world to rights
  Bb Dm 
Watching the sun go down as the
          Gm Eb 
Coastguard turn on the lights
   Bb Dm Gm Eb 
And all the people in the boats could see
 Bb Dm Gm Eb 
Nobody on the beach but you and me

 Bb Dm Gm Eb    x3  
 Bb Dm Gm Eb 
Nobody on the beach but you and me

 Bb Dm Gm Eb 
Da   da   da   dadada    x8

    Bb Dm     
If you were here I know that
            Gm Eb 
We'd be putting the world to rights
  Bb Dm 
Watching the sun go down as the
          Gm Eb 
Coastguard turn on the lights
   Bb Dm Gm Eb 
And all the people in the boats could see
 Bb Dm Gm Eb 
Nobody on the beach but you and me

 Bb Dm Gm Eb    x3  
 Bb Dm Gm Eb 
Nobody on the beach but you and me

 Bb Dm Gm Eb    x4

END

Birds With Broken Wings chords – Ben Caplan

 Birds with Broken Wings by Ben Caplan

These are Chords and Tab to this version of the song: https://www.youtube.com/watch?v=P6byMJHNrBQ
Im pretty sure that this is 99,9% accurate. Have fun! :) 



(Intro)  

 Em 


(Verse)

          Em Am 
Bring me birds with broken wings, Men with all the answers,
 B Em 
People who have killed,Give me incurable cancers.
           Em Am 
Bring me creatures baked in oil, Give me disregard for doubt,
 B Em 
Street lights shine on broken Roads where no one is about.
              Em Am 
I want that hopeless dream depression, Punishments without a cause,
          B Em 
Give me impotent obsession, And disregard for laws.
            Em Am  
I want the trees in single file, Bring the corpse of something rare,
         B Em 
Show me children who are sinners, Show me mounds of human hair.


(Chorus)

 Am Em 
I climbed up the mountain just to kill my son,
 Am Em 
An angel tried to stop me with a ram,
              Am Em 
Well he said “your mind’s infected”, But I said “you lack perspective”,
 B 
You gotta walk the bottom if you wanna see the top,


 Em Am B Em 
La da da da, La da da da, La da da da da da da da da da  
 Em Am B Em 
La da da da, La da da da, La da da da da da da da da da  



(Verse)

         Em Am 
Give me poison I can swim in, Water I can’t drink,
  B Em 
Wheels that won’t stop spinning, Teach my children not to think.
             Em Am 
I want the fruit that tastes like nothing, And two thumbs for every crook,
          B Em 
Give me lessons without questions, Mild the days the books.
        Em Am 
Give me metaphors unraveled, Poetry defined,
             B Em 
Bring me the head of Dionysius, But please don’t spill out the wine.
          Em Am 
Trade the future for the present, Trade me ashes for my history,
         B Em 
I don’t need to look inside,I know the answer to the mystery.

(Ends with this harmonic:)

e|--12+--|
B|--12+--|
G|--12+--|
D|-------|
A|-------|
E|-------|


(Chorus)

 Am Em 
I climbed up the mountain just to kill my son,
 Am Em 
An angel tried to stop me with a ram,
              Am Em 
Well he said “your mind’s infected”, But I said “you lack perspective”,
 B 
You gotta walk the bottom if you wanna see the top,


 Em Am B Em 
La da da da, La da da da, La da da da da da da da da da  
 Em Am B Em 
La da da da, La da da da, La da da da da da da da da da  


(Bridge)

 C Em 
Oh I know they call me crazy,
 C Em 
But there will be no turning back,
 Am Em 
I don’t care if things get ugly.
 B 
Once the word of god is spoken,
 B 
There’s no way to take it back,


(Solo)

e|-7----------------|-8----------------|
B|---8-------7-8----|---8-------7-8----|
G|-----9-8-9-----9--|-----9-8-9-----9--|
D|------------------|------------------|
A|------------------|------------------|
E|------------------|------------------|

e|----------7-6h7p6------------------------------|
B|-----7-------------8-7-8-7h8p7---------7-8-----|
G|-8-9----------------------------9-8-9-------9--|
D|-------9---------------------------------------|
A|-----------------------------------

Listening chords – Ben Taylor

 -=-=-=-=-=-=-=-=-=-=-=-=-=-=-=-=-=-=-=-=-=-
Ben Taylor - Listening 2:51
-=-=-=-=-=-=-=-=-=-=-=-=-=-=-=-=-=-=-=-=-=-
Track 1 From 'Listening' 2012
Transcription By Tudor Toomey-Lewis

-=-=-=-=-=-=-=-=-=-=-=-=-=-=-=-=-=-=-=-=-=-

* Tuning Eb Ab Db Gb Bb Eb *


A6  {x 0 2 2 5 2}  

Bm11/A {x 0 4 4 3 0}  

Bm11 {x 2 0 2 3 0}           
                             
Intro: Bm (7th fret sounds good)

Verse 1------------------

 Bm D 
Another number for another year,
 G D 
Another blessing disguised by fear
          Bm D G D 
(Pull off on the e string or hammer on James Taylor style throughout)
How come everything good seems so hard to hear when I'm listening
 Bm D 
And now I'm trying to find myself
 G D 
And all I need is a little help
 Bm D 
But everybody else is busy helping themselves
         G D 
And I'm listening
    G D 
Oh listening

Chorus----------------

 A A6 Bm 
I get the feeling like I can't go on here
 G D 
How much longer? How much longer? 
 A A6 Bm 
Oh, Believing that I don't belong here.
 G D 
How much longer?
        G D 
Tell me. 

Verse 2------------------

 Bm D 
I walk so far that I can't get near
 G D 
So much talking the point disappears
 Bm D 
So it's only when listening it comes through clear.
           G D 
I've been listening
  Bm D 
I want so much that I aim too high
 G D 
I test the water and feel the fire
 Bm D 
So its no ones wonder my mouth gets dry
           G D 
I've been listening
    G D 
Oh listening

Chorus 2--------------

  A A6 Bm 
Still I get the feeling like I can't go on here
 G D 
How much longer? How much longer? 
 A A6 Bm 
Oh, Believing that I don't belong here.
 G D 
How much longer?
        G D 
Tell me


Bridge---------------- 


 Em F# Bm Bm11/A   (Just remove the barring finger)
I was looking for a way to bow out gracefully
    G Gm   
But when I try to catch some understanding
 C9 Bm 
Everybody wants to race with me

Chrous 3------------

 A A6 Bm 
I get the feeling like I can't go on here
 G D 
How much longer? How much longer? 
 A A6 Bm 
Oh, Believing that I don't belong here.
 G D 
How much longer?
         G D 
Tell me how much longer?
 G Bm11 E7 
How much longer?

Its Not So Sad chords – Ben Taylor

 -=-=-=-=-=-=-=-=-=-=-=-=-=-=-=-=-=-=-=-=-=-
Ben Taylor - It's Not So Sad 3:43
-=-=-=-=-=-=-=-=-=-=-=-=-=-=-=-=-=-=-=-=-=-
Track taken from John Forte's Youtube Channel

Transcription By Tudor Toomey-Lewis

-=-=-=-=-=-=-=-=-=-=-=-=-=-=-=-=-=-=-=-=-=-

Notable Chords

F#dim7  xx4545
 B7       x2120x
 Em7/G    xx5030
 GM7      320032
 G        320030
 E / F#7    xx4530

Intro
Strummed

     Em    Emadd2    Em    Emadd2   Am Am6 
e|---0------2------3------2------0------2--|
B|---0------0------0------0------1------1--|
G|---0------0------0------0------2------2--|
D|---2------2------2------2------2------2--|
A|---2------2------2------2------0------0--|
E|---0------0------0------0------X------X--|

Verse 1---------------------------------------------------------

 Em 
Lucky you, lucky stone, lucky low setting sun
      Am 
Easy smouldering too and a torch
 Em 
A time that beat life like the skin of God's drum
          Am 
While we smoked cigarettes on the porch 

F#dim7                  Em 
Safe in the shadow and true in the light
 Am 
Removed from the lost and the found
 B7 Em 
I harbour my strength to remember that night
       Am D 
So to honour the up with the down

Chorus----------------------------------------------------------

             Am 
It's not so sad
             D 
It's not so sad
             Am 
It's not so sad
             C 
It's not so sad
                                   GM7 G GM7 
Knowing for what to find your way back

         Am 
Now I'm leaving on a plane, here I go again, never be the same
             C 
hard as you hit me
          Am 
And It's hard to say goodbye, tryin to figure why, even when you cry
             C D Dsus4 D 
you look so pretty

Verse 2---------------------------------------------------------------------------

     Em 
If I hadn't been reckless, I'd never have learned
        Am 
taking leave of my balance or slipped
      Em 
But I started to tremble, to freeze and to burn
      Am 
ever you are my challenge and gift

F#dim7                      Em 
As sure as the joy can find peace in the pain
       Am D 
So the eaves can be proud of the work
 B7 Em7/G 
And heaven and earth are as one when it rains
       Am D 
so we search for our clouds in the dirt

Chorus--------------------------------------------------------------------

             Am 
It's not so sad
             D 
It's not so sad
             Am 
It's not so sad
             C 
It's not so sad
                                   GM7 G GM7 E / F#7  
Knowing for what to find your way back 

-----------------------------------------------------------------------------

Chords at the end

xxx110

xxx222

Guardian King Of Love And Grace chords – Ben Cantelon V4

 Guardian by Ben Cantelon
Capo: 5

Verse 1: 
 C D C  
        King of love and grace, my Guardian, 
                                    D Em  
All my hopes and fears are in Your hands; 
       D Em  
I'm in Your hands. 
 C D C  
        Where You go, I'll go; show me the way. 
                    D Em  
Every step I take be now my guide, 
     D Em         
God on my side. 


Chorus:                   C G  
You go before me, You're there beside me, 
         Em G/D D  
And if I wander Love will find me. 
               C D Em  
Goodness and mercy will always   follow. 
             D C                [1. to 
You go before me,     my Guardian.                  [2. to Mid  
                                                    [3.] |  G  |  G  |  G  |  G  |  G  || 

Verse 2: 
 C D C  
        When I hear You say, 'trust and obey', 
                         D Em  
I will walk by faith and not by sight, 
          D Em  
God of   my   life. 

 C D C  
        So let Your kingdom come, Your will be done. 
            
           D Em  
All Your promises will stand forever. 
         D Em         
You're my defender.



Bridge: 
 G  
You are God, our great defender, 
Strong in love, forever faithful. 
We are Yours and we will trust in You. 
 Em C  
You are God, our great defender, 
 G D  
Strong in love, forever faithful. 
 Em C G    
We are Yours and we will trust in You. 

Hearts At War – Ryan Ben Obay chords

    Hi, this is my first tab, all comments welcome!

   Artist: Hearts at War
                FB: https://www.facebook.com/HeartsAtWar
                YT: http://www.youtube.com/user/DookiefiedOfficial
   Song: Ryan Ben O'Bay
                From album "Brainspin" (2014)
                

   !!! HALF-STEP DOWN TUNING !!!

   Verse:

    D 
   Little Ryan Ben O´Bay
    G 
   Hangin´ in the mall all day
    D A 
   Not much of an output in this shitty little dirty town
    D 
   Did not take so long before
       G 
   He found out how to kill the bore
    D A 
   Gathered dads best whisky and he passed the bottle ´round the ring

   Chorus:

    Bm G 
   Little Ryan Ben O´Bay 
    D A 
   Broken in so many ways
    Bm G A 
   Bound to be another hopeless kid
    Bm G       
   Little Ryan Ben O´Bay
    D A 
   Brought a bottle everyday
        Bm G A 
   You got to make the best of what you have

   Verse:

       D 
   He didn´t need his mind no more
       G 
   He smoked it out behind locked doors
    D A 
   4 or maybe 5 big drags and he was off to wonderland
    D 
   Mom and dad had tried so hard
        G 
   But now the kid had gone too far
    D A 
   Ryan had his life set on drugs and booze and rock n roll

   Chorus:

    Bm G 
   Little Ryan Ben O´Bay 
    D A 
   Broken in so many ways
    Bm G A 
   Bound to be another hopeless kid
    Bm G       
   Little Ryan Ben O´Bay
    D A 
   Brought a bottle everyday
        Bm G A 
   You got to make the best of what you have

   Bridge:

 G D A D  
   Try to move up one notch and show them what you´ve got
    G D A     
   Tell me Ben O´Bay are you ready or not
 G D A D 
   You better believe it, this is as good as it gets
        G A 
   But no, don´t let go


   [ INSERT SOLO HERE ]
   
   Chorus:

    Bm G 
   Little Ryan Ben O´Bay 
    D A 
   Broken in so many ways
    Bm G A 
   Bound to be another hopeless kid
    Bm G       
   Little Ryan Ben O´Bay
    D A 
   Brought a bottle everyday
        Bm G A 
   You got to make the best of what you have
                G D A D 
   Of what you have

Another Lonely Day Tabs by Ben Harper V4

 With most of what was submitted I couldn't hear the song correctly. I submit this off of 
B-man's original post - just cleaned up & tweaked ever so slightly...play along & enjoy!

Verse

e---1-1--------------------------------------------|-----|
B---3-3-------------------------6-6-6-6---1-1------|-----|
G---3-3-------3-3-(3)-(3)-(3)---7-7-7-7---2-2-----.|-----|
D---3-3-------5-5--5---5---5----7-7-7-7---3-3-----.|-3-0-|
A-1-1-1-1-0---5-5--3-h-5-p-3--5-5-5-5-5---3-3------|-----|
E-----------3-3-3--3---3---3------------1-1-1-1-3--|-----|
                       ^
    Bb       Gm    Gm(add11)    Dm        F

Chorus

e--------------------------------------------|-----|
B---8-8-8-8-------------1-1-1-1-1---1-1------|-----|
G---8-8-8-8---3-3-3-3---2-2-2-2-2---2-2-----.|-----|
D---8-8-8-8---5-5-5-5---3-3-3-3-3---3-3-3-0-.|-----|
A-6-6-6-6-6---5-5-5-5---3-3-3h5p3---3-3------|-----|
E-----------3-3-3-3-3-1-1-1-1-1-1-1-1-1------|-1-3-|

    D#        Gm        F     F6

Where We Want To Be Acoustic chords – Ben Barnes

 Intro
 A ,  F#m ,  Abm 

Verse 1
 A 
The sun is shining on the sea today
 F#m 
Youre living your life the easy way
 Abm 
You left behind, the world again
 A 
So be a tourist, hear the call
 F#m 
And youve been saving your money
 Abm 
You can spend it all and you can come away
With me today

Chorus
 E B 
Free from all youre meant to be 
 A 
Come on baby, jump right in
           E B 
Cause tonight, 
              A 
We can be right here where we wanna be
                 F#m Abm 
Come away, come away, get away