Tag: Birds

Jamaica Farewell chords – birds on a wire

 Birds On A Wire (Rosemary Standley & Dom La Nena) - Jamaica Farewell (Harry Belafonte cover)


 A Bm 
Down the way where the nights are gay
 E A  
The sun shines daily on the mountain top
 F#m Bm 
I took a trip on a sailing ship
 E E7 A 
And when I reached Jamaica I made a stop


 A Bm 
I'm sad to say I'm on my way
 E A  
I won't be back for many a day
 F#m Bm 
My heart is down, my head is turning around
 E E7 A 
I had to leave a little girl in Kingston town


 A Bm 
Down the market you can hear
 E A  
Ladies cry out while on their heads they bear
 F#m Bm 
'Akey' rice, salt fish are nice
 E E7 A 
And the rum is fine any time of year


 A Bm 
I'm sad to say I'm on my way
 E A  
I won't be back for many a day
 F#m Bm 
My heart is down, my head is turning around
 E E7 A 
I had to leave a little girl in Kingston town


 A Bm 
Sounds of laughter everywhere
 E A  
And the dancing girls sway to and fro
 F#m Bm 
I must declare my heart is there
 E E7 A 
Though I've been from Maine to Mexico


 A Bm 
I'm sad to say I'm on my way
 E A  
Won't be back for many a day
 F#m Bm 
My heart is down, my head is turning around
 E E7 A 
I had to leave a little girl in Kingston town


 A Bm 
Down the way where the nights are gay
 E A  
And the sun shines daily on the mountain top
 F#m Bm 
I took a trip on a sailing ship
 E E7 A 
And when I reached Jamaica I made a stop


 A Bm 
I'm sad to say I'm on my way
 E A  
Won't be back for many a day
 F#m Bm 
My heart is down, my head is turning around
 E E7 A 
I had to leave a little girl in Kingston town


 A Bm 
Sad to say I'm on my way
 E A  
Won't be back for many a day
 F#m Bm 
My heart is down, my head is turning around
 E E7 A 
I had to leave a little girl in Kingston town

Birds Tabs – ChefSpecial

 BIRDS - Chef'special

INTRO + COUPLET:

e|-----------------------------|--------------------|---------------------------|----------------------|
B|----------------------5------|--------10----------|------7-----------9--------|----------------------|
G|-------6---------------------|--------------------|---------------------------|-------6--7--6~-------|
D|--------------------6---6----|-----11----11-------|----7---7-------9---9------|----------------------|
A|-----7---7--------4----------|---9----------9~----|--5-----------7------------|-----7----------------|
E|---5-------------------------|--------------------|---------------------------|---5------------------|


CHORUS:

e|------------------------|------------------------|-------------------------|-----------------------------|
B|----7-----7---7-----7---|----9-----9---9-----9---|----6------6---6-----6---|----10-------10----9-----9---|
G|--------7---------7-----|--------9---------9-----|---------6---------6-----|----------11-----------9-----|
D|------7---------7-------|------9---------9-------|-------6---------6-------|-------11------------9-------|
A|------------------------|------------------------|-------------------------|-----------------------------|
E|------------------------|------------------------|-------------------------|-----------------------------|

Beautiful Birds solo Tabs – Passenger

 -------------------------------------------------------------------------------
                             Beautiful birds - Passenger
-------------------------------------------------------------------------------

Hi everyone, hope y'all having a happy holiday. 

This is an easy version of tabbing the song that I've created and it sounds accurate. Enjoy!

Capo on 7th fret
  
Intro:
e|---3-2---0-----------------------3-2---0-------------3-2-------------------|
B|-------3-------3---------------------3-------3-----3-----------------------|
G|--0----------0---2---2-4-----2-0-----------0---2-0-------------------------|
D|-------------------0-------0-----------------------------------------------|
A|-----------3-----------------------------3---------------------------------|
E|-0-----------------------3-------------------------------------------------|

e|-3-2---0-------------------------------------------------------------------|
B|-----3-------3-----------------------------0-3---1-1h0---------------------|
G|-----------0---2---2-4-----2-0-------0---0-----0---------------------------|
D|-----------------0-------0-------0h2---2-----------------------------------|
A|---------3---------------------3-------------------------------------------|
E|-----------------------3---------------------------------------------------|


Second tabbing (between the second and third stanzas), almost the same as the first plate: 


e|-3-2---0-----------------------3-2---0-------------3-2---------------------|
B|-0---3-------3---------------------3-------3-----3-------------------------|
G|-0---------0---2---2-4-----2-0-----------0---2-0---------------------------|
D|-0---------------0-------0-------------------------------------------------|
A|---------3-----------------------------3-----------------------------------|
E|-----------------------3---------------------------------------------------|

e|-7-5-3-0-3-2-------0-------------------------------------------------------|
B|-------------3-0-3---3---0-0-1ho-------------------------------------------|
G|-----------------------2---------------------------------------------------|
D|---------------------------------------------------------------------------|
A|---------------------------------------------------------------------------|
E|---------------------------------------------------------------------------|


And than in the end from the last word (cage):

e|----3-2-7---7---7-5-3---3-0-3-2-3-2-3-2---0--------------------------------|
B|---3------------------------------------3-------3--------------------------|
G|--2-------0---0-------0-----------------------0---2---2-4-----2-0----------|
D|-0--------------------------------------------------0-------0--------------|
A|--------------------------------------------3------------------------------|
E|----------------------------------------------------------3----------------|

e|----------------3----------------------------------------------------------|
B|------------0-3-0----------------------------------------------------------|
G|---0------0-----0----------------------------------------------------------|
D|--0h2-2---------0----------------------------------------------------------|
A|-3------3------------------------------------------------------------------|
E|---------------------------------------------------------------------------|



************************************

| /   slide up
| \   slide down
| h   hammer-on
| p   pull-off
| ~   vibrato
| +   harmonic
| x   Mute note
| b   Bend
| pb  Pre-bend
| br  Bend release
| pbr Pre-bend release
| brb Bend release bend

************************************

Champagne Supernova Acoustic chords – Noel Gallaghers High Flying Birds V3

 Standard Tuning) (Capo 3) (Please Take a Moment to Comment or Rate !,,!) 

Intro:  G2  |  Fmaj7  |  Cmaj7  |  G2  -  Am7/G  

Verse 1:
       
 G2 
How many special people change?
        
     Fmaj7 
How many lives are living strange?

 Cmaj7 G2   
Where were you while we were getting high?
             
       
Slowly walking down the hall
      
 Fmaj7 
Faster than a cannon ball
        
 Cmaj7 G2 
Where were you while we were getting high?

Chorus:

 G2 
Someday you will find me
       
                    Fmaj7 
Caught beneath the landslide
           
 Cmaj7 G2 
In a Champagne Supernova in the sky
           
            
Someday you will find me
           
                    Fmaj7 
Caught beneath the landslide
      
      Cmaj7 
In a Champagne Supernova
 
   G2 
A Champagne Supernova in the sky...

 G2  |  Fmaj7  |  Cmaj7  |  G2  

Verse 2: 

 G2 
Wake up the dawn and ask her why?
         
   Fmaj7 
A dreamer dreams she never dies
     
           Cmaj7 G2  
Wipe that tear away now from your eye
              
                     
Slowly walking down the hall
              
 Fmaj7 
Faster than a cannon ball
           
 Cmaj7 D 
Where were you while we were getting high?

Chorus 2:
                  G 
Someday you will find me

                    F 
Caught beneath the landslide

      C G 
In a Champagne Supernova in the sky
         
            
Someday you will find me

                    F 
Caught beneath the landslide

      C 
In a Champagne Supernova
          
   G 
A Champagne Supernova

Bridge:
  F                            
'Because people believe that they're
       
                        G 
Gonna get away for the summer

 F                           
But you and I, we live and die

     C                       
The world's still spinning round
             
               D 
We don't know why?

                G 
Why? Why? Why? Why?

Solo:  G2  |  Fmaj7  |  Cmaj7  x2

Verse 3:

 G2 
How many special people change?
        
     Fmaj7 
How many lives are living strange?

 Cmaj7 G2 
Where were you while we were getting high?
             
       
Slowly walking down the hall
      
 Fmaj7 
Faster than a cannon ball
        
 Cmaj7 D 
Where were you while we were getting high?

Chorus: 
              G 
Someday you will find me

                    F 
Caught beneath the landslide

      C G 
In a Champagne Supernova in the sky
         
            
Someday you will find me

                    F 
Caught beneath the landslide

      C 
In a Champagne Supernova
          
   G 
A Champagne Supernova


Bridge:
  F                            
'Because people believe that they're
       
                        G 
Gonna get away for the summer

 F                           
But you and I, we live and die

     C                       
The world's still spinning round
             
               D 
We don't know why?

                G 
Why? Why? Why? Why?

Solo:  G  |  Fmaj7  |  Em  |  Eb Fmaj7  (x4) |  Eb Fmaj7  (x2)

 G2  |  Fmaj7  |  <s

Half The World Away Acoustic chords – Noel Gallaghers High Flying Birds

 (Standard Tuning) (Capo 2) (Please Comment or Rate !,,!)

Intro:  C  |  Fmaj7  x2

Verse 1: 

 C Fmaj7 
Well, I would like to leave this city

 C Fmaj7 
This old town don't smell too pretty and

 C Em7 Am D7 Fmaj7   
I can feel the warning signs running around my mind


Verse 2:

 C Fmaj7 
And when I leave this island 

 C Fmaj7 
I'll book myself into a soul asylum

 C Em7 Am D7 Fmaj7   
And I can feel the warning signs running around my mind

Bridge:

 Am C Em7 Am 
So here I go still scratching around in the same old hole

 Fmaj7 D7 G G6 
My body feels young, but my mind is very old

Chorus:

 Am C 
So what do you say?

           Em7 Am 
You can't give me the dreams that are mine anyway

 F 
You're half the world away

 Fm 
Half the world away

 C Em7 Am 
Half the world away

           Dm7 Fmaj7 
I've been lost I've been found but I don't feel down. 

 C  |  Fmaj7  x2

Verse 3:

 C Fmaj7 
And one day I am gonna leave this planet

 C Fmaj7 
You would know I'd stay, but I just can't stand it and

 C Em7 Am D7 Fmaj7   
I can feel the warning signs running around my mind


Verse 4:

 C Fmaj7 
And one day I am gonna leave my spirit 

 C Fmaj7 
Find me a hole and I would live in it

 C Em7 Am D7 Fmaj7   
And I can feel the warning signs running around my mind


Bridge:

 Am C Em7 Am 
here I go still scratching around in the same old hole

 Fmaj7 D7 G G6 
My body feels young, but my mind is very old (la da da)...

Chorus:

 Am C 
what do you say?

           Em7 Am 
You can't give me the dreams that are mine anyway

 F 
You're half the world away

 Fm 
Half the world away

 C Em7 Am 
Half the world away

       Dm7 Fmaj7 
I was lost I was found, but I don't feel down. 


 C Fmaj7 
Don't Feel down

 C Fmaj7 
Don't feel down 

 C Fmaj7 
Don't feel down... 

Outro:

 C  |  Em7  |  Am  |  Dm7  |  Fmaj7  |  C

In My Room chords – The Mutton Birds

 C  -  F  -  C  -  D  (2x)   +  C  -  F  -  C  -  D  (2x)
 
                 C F C G C 
1. In my room I can keep everything within reach,
                    C F C      -  G 
    all the switches and fittings are new.
                 C F C G C 
    I have tapped on the walls and I've paced out the floor,
                  C F C     -  G 
    and I know every inch of the ceiling, too.
               Em F     -  C  -  G Em F     -  C  -  G 
    But I keep seeing you,               yes, I keep seeing you.
 
                 C F C G C 
2. In my room I have built a religion of a kind,
                       C F C         -  G 
    I've found virtue in things that stay the same.
                 C F C G C 
    In my room I measure time by the things that I use up,
                    C F C          -  G 
    and just like my shopping list I will never change.
               Em F     -  C  -  G Em F     -  C  -  G 
    But I keep seeing you,               yes, I keep seeing you.
 
                C G Dm    -  F 
    And I don't recognise where I am,
                   C G Dm    -  F 
    all the shapes and the shadows start to spin,
                      C G Dm   -  F 
    because you're the one that finally let me in
                 C  -  D C  -  D 
    to my roo.....m,  in my roo.....m.
 
                 C 
3. In my room a river runs along the wall above my bed,
 
    in my room a mountain stands behind the door.
                     C F C G C 
    There is nothing I'm denied, I don't need to go outside,
                                          F G  -  G7 
    because in my room I cannot ask for mo.....re.
 
 
 
 
 
 
 
                     C G Dm    -  F 
    ‘Cause I don't recognise where I am,
                   C G Dm    -  F 
    all the shapes and the shadows start to spin,
                      C G 
    because you're the one that finally showed me
     Em F G 
    that I've never been here before.
              Em F G 
    No, I don't think that I've been here before,
              Dm F G 
    no, I don't think that I've been here before,
              Dm F G 
    no, I don't think that I've been here before.
 
                     C G Dm     -  F 
    'Cause I don't recognise where I am,
                    C G Dm     -  F 
    all the shapes and the shadows start to spin,
                      C G Dm F 
    because you're the one that finally let me in, you finally let me in
                 <s

Fields Of Athenry chords – Dropkick Murphys V5

 I have taken a little time to do a version of this, there are several posted but none are complete. 
By far the simplest way to play this is is to tune down a semi tone to Eb, you can of course leave
your guitar in standard tuning and transpose down (-1 on the auto transpose on the left of your screen)
giving you Eb Ab Bb and Cm if you wish. Song is in the key of Eb (something to do with bagpipe tuning)
Comments and suggestions welcome, please rate

INTRO:  B E B 

VERSE 1:
      E A E B E A B 
By a lonely prison wall, I heard a young girl calling, Micheal they have taken you away
         E A E B E                        
For you stole Trevelyn's corn, so the young might see the morn, now a prison ship lies waiting in the bay

CHORUS:
 E A E C#m E C#m B 
Low, lie, the fields of Athenry, where once we'd watch the small free birds fly
     E A E B E B E 
Our love was on the wing, we had dreams and songs to sing, it's so lonely round the fields of Athenry

VERSE 2:
      E A E B E A B 
By a lonely prison wall, I heard a young man calling, nothing matters Mary when you're free
             E A E B E  
Against the famine and the crown, I rebelled they cut me down, now you must raise our child with dignity

CHORUS:
 E A E C#m E C#m B 
Low, lie, the fields of Athenry, where once we'd watch the small free birds fly
     E A E B E 
Our love was on the wing, we had dreams and songs to sing, it's so lonely round the fields of Athenry

CHORUS: (without vocals)  E A E C#m E C#m B E A E B E B E 

VERSE 3:
      E A E B E A B 
By a lonely harbour wall, she watched the last star falling, as the prison ship sailed out against the sky
             E A E B E 
Sure she'll wait and hope and pray for her love at Botany Bay, it's so lonely round the fields of Athenry

BAGPIPE SOLO: No Chords then  E A E B                                         E
                                      it's so lonely round the fields of Athenry

CHORUS:
 E A E C#m E C#m B 
Low, lie, the fields of Athenry, where once we'd watch the small free birds fly
     E A E B E 
Our love was on the wing, we had dreams and songs to sing, it's so lonely round the fields of Athenry

Ending:  B A E

Do The Damage chords – Noel Gallaghers High Flying Birds V2

 INTRO:
 Em D C B A G D 
(Listen to the song to get the strumming pattern...it's very much like the intro to "My Big Mouth" by Oasis)
Em (just keep chugging this, sounds pretty good palm muted on an acoustic in my opinion)

 Em 
There’s gold in the city
 Em 
But never quite enough now to pay the rent
 Em 
You could've had it all, but the pity
 Em 
Is everything you’re gonna need is heaven sent

 Em 
Maybe the dream that we had is gone
 Em 
The people 'round here are like a setting sun
 Em G A 
They’re digging you up when they’re knocking you down
A                   Em (I like to bend the strings here...definitely hold this note out)
But they can’t stop me from loving you

BRIDGE: 
 Em G A Em G D Em G A Em G D Em G A 
Be my butterfly, but please don't flutter by
 Em G D 
You do the damage kid
 Em G A 
If love's what it's all about it's so like a juggernaut
 Em G D 
You do the damage kid

 Em G A Em G D Em G A G A  
Em (start chugging this last Em again)

 Em  
Like a stone I was falling
 Em 
Will anybody come and get me out of here?
 Em G A Em 
I waited in the rain for the calling
 Em G A Em 
Will anybody come and get me out of here?

 Em G A Em 
Maybe the dream that we had is gone
 Em G A Em 
The people 'round here are like a setting sun
 Em G A 
They’re digging you up when they’re knocking you down
 A Em 
But they can’t stop me from loving you

 Em G A Em G D Em G A 
Be my butterfly, but please don't flutter by
 Em G D 
You do the damage kid
 Em G A 
If love's what it's all about it's so like a juggernaut
 Em G D 
You do the damage kid

 Em G A 
Be my butterfly, but please don't flutter by
 Em G D 
You do the damage kid
 Em G A 
If love's what it's all about it's so like a juggernaut
 Em G D 
You do the damage kid

OUTRO: 
 Em G A Em G D Em G A G A Em

Silhouettic chords – Birds Of Tokyo V2

 Chords( Started writing these upside down, it's been a while... )

     C Em B5 B5/F# G D 
E   3 0  x  2     3 x
A   3 2  2  x     x x
D   2 2  4  4     0 0
G   0 0  4  4     0 3
b   1 0  x  x     3 2
e   0 0  x  x     3 3

Intro:

The tenth fret G shape chord gets played 8 times

E|----------------------------------------------------------------------------10--10--10--| 
B|----------------------------------------------------------------------------10--10--10--|
G|----------------------------------------------------------------------------0---0---0---|
D|--9--9--9--10--10--10--7--7--7--9--9--9-------------------------------------0---0---0---|
A|--7--7--7--7---7---7---7--7--7--7--7--7--9--9--10--10--9--9--9--10--10--10--0---0---0---|
E|-------------------------------------------------------7--7--7--7---7---7---10--10--10--| 

Verse:
Main chord progression in verses
 C Em B5 B5/F# G D 

Show me what it means
We're all dying to know
Do I take a hit to the heart?
Should I let bleeding words weep?
Silhouette a perfect scene
Flavour of the month is not that new to me
And you can always be never to far from me

Pre-Chorus:
 Am C 
Always on the same page
(I'm not sure we are)
 Am C 
Always on the same page

Chorus x2:
Mutes      Em  
There goes my baby
 B5 
She's gotta know
 G 
She's gotta know
 Em B5 G 
That when the red lights on there's no one at home

Verse:
(Same as first)
Pick and pull apart
Leaving me split at the seams
I'm saying if you want blood
You'll never get a drop out of me
What is it you don't understand?
Showing no proof in your plans
Now baby this pain won't end
And this heartache still rises

Pre-Chorus:
Always on the same page
(I'm not sure we are)
Always on the same page

Chorus:
There goes my baby
She's gotta know
She's gotta know
That when the red lights on there's no one at home

Bridge:
E|---------------------------|
B|---------------------------|
G|---------------------------|
D|--10-----10-----10-----10--| x2
A|--8------8------9------9---|
E|---------------------------|
Hit some open notes an things. abuse yo guitar.
Then it goes into the chord riff used in the verse

Another Chorus:
There goes my baby
She's gotta know
She's gotta know
That when the red lights on there's no one at home

Outro:
E|------------------------------------------------------     -||
B|------------------------------------------------------     -||
G|------------------------------------------------------     -||
D|--9--9--9--10--10--10--7--7--7--9--9--9--------------- x4  7||
A|--7--7--7--7---7---7---7--7--7--7--7--7--9--9--10--10-     7||
E|------------------------------------------------------     -||

While The Song Remains The Same chords – Noel Gallaghers High Flying Birds

 "While The Song Remains The Same" - Noel Gallagher's High Flying Birds - 2014
                     wranglingoutlaw


Intro - |  G  |  Em C  | x3
        |  G  ..

...        Em C G 
For every whispered lullaby
             Em C G 
And all the castles in the sky
           Em C G 
For every word I'll ever need
            Em C G 
And all My friends are bound to leave

             Em C G 
For all the times I fell in love
             Em C G 
And when My love was not enough
             Em C G 
And for the future I don't see
             Em C G 
Just let it come down over Me
             Em C G  
Just let it come down over Me


|  C Em  |  G C  |   x3


|  Am  |  C  |   x2

|  Em C  |  G  |  Em C  |  G  ..

...        Em C G 
For every whispered lullaby
             Em C G 
And all the castles in the sky
           Em C G 
For every word I'll ever need
             Em C G 
Just let it come down over Me
             Em C G  ..
Just let it come down over Me


Birds With Broken Wings chords – Ben Caplan

 Birds with Broken Wings by Ben Caplan

These are Chords and Tab to this version of the song: https://www.youtube.com/watch?v=P6byMJHNrBQ
Im pretty sure that this is 99,9% accurate. Have fun! :) 



(Intro)  

 Em 


(Verse)

          Em Am 
Bring me birds with broken wings, Men with all the answers,
 B Em 
People who have killed,Give me incurable cancers.
           Em Am 
Bring me creatures baked in oil, Give me disregard for doubt,
 B Em 
Street lights shine on broken Roads where no one is about.
              Em Am 
I want that hopeless dream depression, Punishments without a cause,
          B Em 
Give me impotent obsession, And disregard for laws.
            Em Am  
I want the trees in single file, Bring the corpse of something rare,
         B Em 
Show me children who are sinners, Show me mounds of human hair.


(Chorus)

 Am Em 
I climbed up the mountain just to kill my son,
 Am Em 
An angel tried to stop me with a ram,
              Am Em 
Well he said “your mind’s infected”, But I said “you lack perspective”,
 B 
You gotta walk the bottom if you wanna see the top,


 Em Am B Em 
La da da da, La da da da, La da da da da da da da da da  
 Em Am B Em 
La da da da, La da da da, La da da da da da da da da da  



(Verse)

         Em Am 
Give me poison I can swim in, Water I can’t drink,
  B Em 
Wheels that won’t stop spinning, Teach my children not to think.
             Em Am 
I want the fruit that tastes like nothing, And two thumbs for every crook,
          B Em 
Give me lessons without questions, Mild the days the books.
        Em Am 
Give me metaphors unraveled, Poetry defined,
             B Em 
Bring me the head of Dionysius, But please don’t spill out the wine.
          Em Am 
Trade the future for the present, Trade me ashes for my history,
         B Em 
I don’t need to look inside,I know the answer to the mystery.

(Ends with this harmonic:)

e|--12+--|
B|--12+--|
G|--12+--|
D|-------|
A|-------|
E|-------|


(Chorus)

 Am Em 
I climbed up the mountain just to kill my son,
 Am Em 
An angel tried to stop me with a ram,
              Am Em 
Well he said “your mind’s infected”, But I said “you lack perspective”,
 B 
You gotta walk the bottom if you wanna see the top,


 Em Am B Em 
La da da da, La da da da, La da da da da da da da da da  
 Em Am B Em 
La da da da, La da da da, La da da da da da da da da da  


(Bridge)

 C Em 
Oh I know they call me crazy,
 C Em 
But there will be no turning back,
 Am Em 
I don’t care if things get ugly.
 B 
Once the word of god is spoken,
 B 
There’s no way to take it back,


(Solo)

e|-7----------------|-8----------------|
B|---8-------7-8----|---8-------7-8----|
G|-----9-8-9-----9--|-----9-8-9-----9--|
D|------------------|------------------|
A|------------------|------------------|
E|------------------|------------------|

e|----------7-6h7p6------------------------------|
B|-----7-------------8-7-8-7h8p7---------7-8-----|
G|-8-9----------------------------9-8-9-------9--|
D|-------9---------------------------------------|
A|-----------------------------------

Ordinary Love chords – U2 V4

 U2 - Ordinary Love


Hi  this should be the version played by U2 in a tv show.
You can also play it with a capo on 4th freet with these chords: (Am-Em-Am-D)
I hope you will appreciate it ;)

Luca

Intro :  C#m G#m B F#  (x3)


INTRO TAB

            C#m G#m B F# 
e-------------------|------------------|---------------------|------------------------------|
B----------5----5---|-------4------4---|----------4------4---|---------2-------2------------|
G--------6----------|-----4------------|-------4-------------|------3-----------------------|
D-------------------|------------------|---------------------|------------------------------|
A----4-------4------|------------------|-2-----------2-------|------------------------------|
E-------------------|-4--------4-------|---------------------|--2-----------2---------------|

Verse 1:
 C#m G#m 
The sea wants to kiss the golden shore
 B F# 
The sunlight warms your skin
 C#m G#m 
All the beauty that's been lost before
 B F# 
Wants to find us again

Verse 2:
 C#m G#m 
I can't fight you anymore
 B F# 
It's you I'm fighting for
 C#m G#m 
The sea throws rock together
     C#m F# 
But time leaves us polished stones

Chorus:
 C#m G#m 
We can't fall any further
 B F# 
If we can't feel ordinary love
 C#m G#m 
We cannot reach any higher
 B F# 
If we can't deal with ordinary love

Bridge :  C#m G#m B F#  (x2)

Verse 3:
 C#m G#m 
Birds fly high in the summer sky
 B F# 
And rest on the breeze
 C#m G#m 
The same wind will take care of you and
 B F# 
I will build our house in the trees

Verse 4:
 C#m G#m 
Your heart is on my sleeve
 B F# 
Did you put there with a magic marker
 C#m G#m 
For years I would believe
 B F# 
That the world couldn't wash it away

Chorus

Solo :  C#m G#m B F#  (x2)

Verse 5:
 C#m G#m 
Are we tough enough
 B F# 
For ordinary love

Solo :  C#m G#m B F#  (x2)

Chorus (x2)

At The Birds Foot chords – City And Colour V3

 Capo 1


 Em : 032000
 C/G : 332010
 D/A : 554030



 Em 
There is a fire burning in the ocean,
                 C/G D/A Em 
With death black smoke and devil red flames,
 Em 
You can see it burning from the valley,
            C/G D/A 
Oh you can see it from the high plains,

 Em C/G D/A 
Oooh x 3

 Em 
While they were drillin',
Searchin for black gold,
             C/G D/A 
To add more dollars,
          Em 
To their names,

 Em 
Then one evening,
So suddenly and violent,
              C/G D/A 
There was an explosion,
           Em 
They cant explain,

 Em C/G D/A 
Oooh x 3


Now the deep water horizon
Desends down to deaths door
And at the bird's foot,
They lost all hope,

Cause oil is driftin,
For miles and miles,
Poisoning the Gulf of Mexico,

But of the eleven,
Men at the bottom,
Who sank to an underwater grave?

And while they were sinking,
And their lungs filled with oil,
They must have been screaming,
Screaming to be saved,

Oooh (repeats until end of song)

But of the eleven ,
Men at the bottom,
Who sank to an underwater grave?

While they were sinking,
Their lungs filling with oil,
They must have been screaming,
Screaming to be saved.

Dominion Road Tabs by The Mutton Birds V3

 Here is the whole song, including the solo, plus some specific chord voicings.

Chords used:
B:       7 9 9 8 7 7
A:       5 7 7 6 5 5
E:       0 2 2 1 0 0
C#m:     9 11 11 9 9 9
E(ii):   x 7 9 9 9 7
F#:      2 4 4 3 2 2
G#m:     4 6 6 4 4 4
F#m:     2 4 4 2 2 2
C#m(ii): x 4 6 6 5 4

Intro Chords and Riff:
    B        A      E    add a quick C#m just before repeating the intro
e|-------------------------------------------------------|
B|-------------------------------------------------------|
G|--8--8-9-8-------------------------------------------- |
D|-----------7-9-11-9-9-11-9---9-------------------------|
A|---------------------------11--------------------------|
E|-------------------------------------------------------|

Intro riff is played four times then:

B                E
Dominion Road is bending;
A         E     B
under it’s own weight,
B               E
Shining like a strip,
           A      E     B
cut from a sheet metal plate,
E                       Play Intro once
Cause its just been raining.

B                 E(ii)
Janie reached the point where she knew what he
A               E(ii)      B
meant before he opened his mouth,
B                    E(ii)
He couldnt say the same or hed have
A               E(ii)   B
guessed she was moving south, with
E(ii)       B
one of his friends.

                    F#                       E          B
But its getting better now, he found it in him to forgive,
              F#            E                B
He walked the city, and he found a place to live
             F#
In a halfway house,
        E             Play Intro twice
halfway down Dominion Road.


B                          E(ii)
He watched Janes brother sell the house he
A       E(ii)     B
felt no sense of loss,
B           E(ii)
More like a mountain-climber
        A          E(ii)     B
looking back having made it across
    E(ii)     B
the steepest face.

                  F#                E                 B
Oh but hes still climbing, see him trying to cross the street,
              F#                  E                B
He tests his footing, like he was up ten thousand feet
          F#              E              Play shortened intro
above the clouds, halfway down Dominion Road.

Shortened Intro:
    B         A     E
e|-----------------------------------------|
B|-----------------------------------------|
G|--8--8-9-8-------------------------------|
D|-----------7-9-11-9----------------------|
A|-----------------------------------------|
E|-----------------------------------------|

Woah-Oohhhhh_______

Solo with Chords
   G#m                             A
e|-12-12--14-12----12-12--14-12---12-12--14-12--12--------------|
B|------12-----12-------12-----12------12-----12----------------|
G|--------------------------------------------------------------|
D|--------------------------------------------------------------|
A|--------------------------------------------------------------|
E|--------------------------------------------------------------|

   F#m                               A
e|-12-12--14-12----12-12--14-12---12-12---14-12-----------------|
B|------12------12------12------12-----12------12---------------|
G|--------------------------------------------------------------|
D|--------------------------------------------------------------|
A|--------------------------------------------------------------|
E|--------------------------------------------------------------|

   G#m                             A
e|-12-12--14-12----12-12--14-12---12-12--14-12--12--------------|
B|------12-----12-------12-----12------12-----12----------------|
G|--------------------------------------------------------------|
D|--------------------------------------------------------------|
A|--------------------------------------------------------------|
E|-------------------------------------------------------

25 To Life chords – The Stray Birds

                          25 to Life
                    By The Stray Birds
                           Capo 5

Intro:  G D A Bm A G A D D A 
Left my home I was 17, I was looking for a job
 A D 
When I met them no-good friends of mine.
 D A 
They gave me all kinds of bad advice and they taught me how to rob.
 A Bm A 
Said they'd always be there down the line...
 A Bm Bm A 
Be there down the line.

 D A 
I got my very first 12 gauge, got a half a dozen shells
 A D 
Come to find that one was all I need.
 D A 
I didn't waste no time a'thinkin' I got right down to the job.
 A Bm A 
That night a grown man would bleed...
 A Bm Bm A 
A grown man would bleed.

 G A            
There ain't no romance in 25 to life,
         Bm A G 
Still a kid I'll prob'ly die in my cell.
 G A 
At night I worry, no dog, no son, no wife.
          Bm A G 
I did it all with a lone shotgun shell.
 Bm A D 
Whoa... A shotgun shell.

 D A D D A 
Well I run up into the country store, I demanded the cash.
 A D  
Had a bag in my left hand, a gun in my right.
 D A 
With the feelings I never had before it all happened oh too fast.
 A Bm A 
That shot rang out as cold as the night...
 A Bm Bm A 
Cold as the night.

 D A 
A dust cloud rose up in the air the blood flowin' from his mouth.
 A D 
Had his eyes wide open, they were starin' back at mine.
 D A 
Judge came out, put the gavel down, his voice mighty loud.
 A Bm G 
"You done wrong and boy you'll do the time...
      A D 
Boy you'll do the time."

 G A          
There ain't no romance in 25 to life,
         Bm A G 
Still a kid I'll prob'ly die in my cell.
 G A 
At night I worry, no dog, no son, no wife.
          Bm A G 
I did it all with a lone shotgun shell.
 G A D 
Whoa... A shotgun shell.

 G A 
There ain't no romance in 25 to life,
             Bm A G 
I'm still a kid I'll probably die in my cell.
 G A  
Hell at night I worry, no dog, no son, no wife.
          Bm A G 
I did it all, did it all to myself.
 G A D A G 
Whoa... A shotgun shell.
 G A D A D 
Whoa... A shotgun shell.

Birds And Ships Tabs by Billy Bragg And Wilco

 -------------------------------------------------------------------------------
            BIRDS AND SHIPS - Billy Bragg and Wilco
-------------------------------------------------------------------------------
: jvwald

Tuning: Open D

intro
d |------------------------------------------------------------------------------|
A |------------------------------------------------------------------------------|
F#|------------------------------------------------------------------------------|
D |----0-2---4---4---2---2----0-2-2h4-0---0-0-----0-4-0--2-0-2---4---4/5-4---2---|
A |--0-----0---0---0---0---0-0----------0-----4-2-------0------0---0-------0---0-|
D |------------------------------------------------------------------------------|

d |--------------------------------------------------------------------|
A |--------------------------------------------------------------------|
F#|------------------------------------------------------------------0-|
D |----0-2---4---4---2---2----0-2-2h4-0---0-0-----0-4-0--2-0-2---2---0-|
A |--0-----0---0---0---0---0-0----------0-----4-2-------0------0---0-0-|
D |--------------------------------------------------------------------|

    The birds are singing in your eyes today, sweet flowers blossom in your smile
d |------------------------------------------------------------------------------|
A |------------------------------------------------------------------------------|
F#|------------------------------------------------------------------------------|
D |----0-2---4---4---2---2----0-2-2h4-0---0-0-----0-4-0--2-0-2---4---4/5-4---2---|
A |--0-----0---0---0---0---0-0----------0-----4-2-------0------0---0-------0---0-|
D |------------------------------------------------------------------------------|

    The wind and sun are in the words you say, where might your lonesome lover be?
d |--------------------------------------------------------------------|
A |--------------------------------------------------------------------|
F#|------------------------------------------------------------------0-|
D |----0-2---4---4---2---2----0-2-2h4-0---0-0-----0-4-0--2-0-2---2---0-|
A |--0-----0---0---0---0---0-0----------0-----4-2-------0------0---0-0-|
D |--------------------------------------------------------------------|

    Birds may be singing in my eyes this day, sweet flowers blossom when I smile
d |--------------------------------------------------------------------------|
A |--------------------------------------------------------------------------|
F#|---0-1-3---3---3/5---5---3---0--------------------------------------------|
D |-------0-0---0-----0---0---0---2-0---0-----0-4-0--2-0-2---4---4/5-4---2---|
A |--0--------------------------------0---4-2-------0------0---0-------0---0-|
D |--------------------------------------------------------------------------|

    But my soul is stormy and my heart blows wild, my sweetheart rides a ship on the sea
d |----------------------------------------------------------------------|
A |----------------------------------------------------------------------|
F#|----------------------------------------------------------------0-----|
D |----0-2---4---4---2---2----0-2-2h4-0---0-0-----0-4-0--2-0-2---2---2-0-|
A |--0-----0---0---0---0---0-0----------0-----4-2-------0------0-------0-|
D |----------------------------------------------------------------------|

d |--------------------------------------------------------------------------|
A |--------------------------------------------------------------------------|
F#|---0-1-3---3---3/5---5---3---0--------------------------------------------|
D |-------0-0---0-----0---0---0---2-0---0-----0-4-0--2-0-2---4---4/5-4---2---|
A |--0--------------------------------0---4-2-------0------0---0-------0---0-|
D |--------------------------------------------------------------------------|

    Though my soul is stormy and my heart blows wild, where might 

Marbled Birds Tabs by The Mantles

 Marbled Birds by The Mantles 

I wasn't sure about the lyrics, so I had to make a lot of guesses. 

https://myspace.com/mantles


Intro: D   D   Am   G  (x4)


Verse:


D          
Turn the picture on it's self  

 Am                G 
The images start to scream Ahh 

D 
Right away, take it back 

 Am                G
Memories have burned 


D  
Marbled Birds, and hallowed words

Am             G
help the days to go Ahh 

D
Always off, always on 

Am             G
Even when it's good 


Bridge: (x4)

E-------------------------|
B-------------------------|
G-------------------------|
D-------------------------|
A--7-7-5-5-3--------------|
E-------------7-7-5-5-3---|


Verse: 

D
Just another thrill discovery

Am                 G
There between each muse 

D
One that shakes and one that takes 

Am           G
And one to give it all 

D
Marbled Birds and hallowed words

Am              G
help the days to get 

D
Always act so put out 

Am             G
Even when it's good 


Bridge: (x4)

E-------------------------|
B-------------------------|
G-------------------------|
D-------------------------|
A--7-7-5-5-3--------------|
E-------------7-7-5-5-3---|


Outro:   D   G   D  Dmaj7  G  (x2) 


Outro: 

D                  G
After, after, promises 

D             Dmjaj7    G
go to see ourselves 

D                  G
Go to play and go to sleigh 

D          Dmaj7     G
roll our heads on down 


D                  G
After after everything 

D      Dmaj7          G
Gonna piece and sing 

D                      G
You'll be there, and I'll be there 

D        Dmaj7      G
and it will be something 



Outro:   D   G   D  Dmaj7  G  (x4)

Dominion Road chords – The Mutton Birds

 Dominion Road - Don McGlashan
~~~~~~~~~~~~~
Credits to original tabber Simon Black


 B :   x24442      Bb :   x13331
 A :   x02220      G# :   466544
 E :   022100      C#m :  x46654
 F# :  244322

intro:  chords:         B A E A E       repeat with  C#m  instead of  B  

        main riff:  B--4-4-4h5-4---0-0h2-0-0-0h2-0---0--    h = hammer-on
                    G------------2-----------------1----

   B E 
Dominion Road is bending 
 A E B 
Under its own weight
                E 
Shining like a strip 
            A E B 
Cut from a sheet metal plate
             E          intro
'Cause it's just been raining

Jane had reached the point where she knew
What he meant before he opened his mouth
He couldn't say the same,
Or he'd have guessed she was moving south
                 B 
With one of his friends

                  F# 
But it's getting better now
             E B 
He found it in him to forgive
               F# 
He walked the city
        E B 
And he found a place to live
               Bb 
In a half-way house
          E 
Half-way down
              intro x2
Dominion Road

When he watched Jane's brother sell the house
He felt no sense of loss
More like a mountain climber looking back,
Having made it across
The steepest face

And he's still climbing
See him try to cross the street
He tests his footing
Like he was up 10,000 feet
Above the clouds
Halfway down
               B A E 
Dominion Road

    G# A G# F# A    x2  then   E B 
Oh oh oh,  oh oh    oh

But it's getting better now
He rests his head on the window sill
He watches the city
He can see the antennas in the hills
>From the half-way house
Half-way down
               B 
Dominion Road
          F# 
Half-way down
          C#m 
Half-way down
          A 
Half-way down
   E B        repeat 'half-way down' part but stay on E,
Dominion Road         then play the intro to the end.

Love Song For The Birds In Our Backyard chords – Ramshackle Glory

 The whole song is  G C D G . The strumming pattern is a little difficult but the chords are simple.

        G C 
Just like that it was winter again here in the desert.
         D G 
 In June, our house was empty. In September it's full of house guests.
 
 They're too punk, or I'm too punk, for words to come out
 sitting here in the living room of our beautiful, broken-down house. 
I've been working so much lately, when I'm home I feel like a stranger
 in a foreign country where I can't speak the language 
of unemployment, minor crimes, plans to get the hell out
 I mutter fuck the police and lie down in our beautiful, broken-down house.
Da da da da da da da da
 We were in the kitchen, it was the week you first moved in.
 I said, We're glad to have you. You shrugged. Well, it's here or a ditch... 
Thanks for dancing, thanks for singing, thanks for sticking around
 and making a home with us here in our beautiful, broken-down house.
 On my days off I like to sit up on the roof and watch the traffic.
 There's my buddy Micky from the laundromat, walking by looking pretty dope sick.
 And hell, I remember that walk, but I haven't taken it for three years now.
 So Micky, come here and lie down in our beautiful, broken-down house.
Da da da da da da da da
 The last couple weeks I know you've been having trouble breathing
and maybe, truthfully, trouble with most things 
but don't you worry if the pipes freeze and power goes out.
 We'll just be friends who are cold, in the dark, of our beautiful, broken-down house.
 And just like that it was summer again here in Tucson.
 In March our house was a jungle, in July it's an abandoned parking lot.
 You move back to England, you move with the seasons, you move where it's hip right now. 
I say, Fuck them all and lie down in our beautiful, broken-down house.
Da da da da da da da da

Smashed Birds Tabs by Soley

 I cut out a few details. But thats how you can play it without a capo!
 

(I walk the road when I realize...)
E----------------------------------|
B----------------------------------|
G--1-2-2-2-1-1-1-1-----------------|
D-2-2-2-2-1-1-1-1--6-6-6-6-4-4-4-4-|
A-----------------4-6-4-4-2-2-2-2--|
E----------------------------------|

 (I grap one note and put it in my pocket)
E----------------------------------|
B----------------------------------|
G--1-1-1-1-1-1-1-1-3-3-3-3-3-3-3-3-|
D-2-2-2-2-1-1-1-1-4-4-4-4-4-4-4-4--|
A----------------------------------|
E----------------------------------|

 (With your birds)
E----------------------------|
B----------------------------|
G----------------------------|
D--6-6-6-6-4-4-4-4-4-4-4-4---|
A-4-4-4-4-2-2-2-2-2-2-2-2----|
E----------------------------|

REF:

 (And there I took all of your birds ... and then I got the fea-)
E----------------------------------|
B----------------------------------|
G--1-1-1-1-3-3-3-3-4-4-4-4-4-4-4-4-|
D-2-2-2-2-4-4-4-4-2-2-2-2-2-2-2-2--|
A----------------------------------|
E----------------------------------|

 (-thers left and I made myself...)
E------------------|
B------------------|
G------------------|
D--4-4-4-4-6-6-6-6-|
A-0-0-0-0-4-4-4-4--|
E------------------|


At DRESS you switch to the beginning again!