Tag: black

Black And White solo Tabs – Parquet Courts

 Black and White - Parquet Courts
   Sunbathing Animal (2015)
~~~~~~~~~~~~~~~~~~~~~~~~~~~~~~~~

All 3 Verses

"..bold strokes crack..."

e|---------------------|
B|---------------------|
G|---------------------|
D|---------------------|
A|--0~-----------------| let note ring out w/ feedback
E|---------------------|

"..I want something more than..."

e|-------------------------------------------|
B|-------------------------------------------|
G|-------------------------------------------|
D|--------5--4--2----------7--5--4--2~-------| let last note ring out w/ feedback 
A|--5--------------3--3\5--------------------|   (especially on the last verse)
E|-------------------------------------------|


What I could make from the solo;

Starts at about 1:55

e|--------------------------------|
B|--------------------------------|
G|--------------------------------|
D|--------------------------------|
A|--14----12----9---9\10-9/-7~----|
E|--------------------------------|

Black Flag Blues chords – Adam Carroll

 Adam Carroll - Black Flag Blues



 F Am 
Black flag blues, black flag blues
 G C 
Holes in the sidewalk, holes in my shoes
 F Am 
Davy Jones been tightening the screws
 G C 
Paint another picture of my black flag blues
 G C 
Pain another picture of my black flag blues


Four on the floor, and two in the seat
Gilbert Roland and Jean Lafitte
Rattlesnake preachers and doomsday signs
Shaking that dice with my hobo mind


Black flag blues, black flag blues
Holes in the sidewalk, holes in my shoes
Davy Jones been tightening the screws
Paint another picture of my black flag blues
Pain another picture of my black flag blues

Well I knew a girl out in Kentucky
She rolled pecan logs down in Stucky's
Long in the tooth with a sideways grin
Getting kinda worried about the shape I'm in


You left me for the artful-dodger
On a motorcycle called the Jolly Roger
I'm all washed up in New Orleans
My head feels like a pinball machine


Well salty dogs chew-in on some grizzle
Captain Kid and his penny whistle
One by land two by sea
Same old lone down blues to me


Black flag blues, black flag blues
Holes in the sidewalk, holes in my shoes
Davy Jones been tightening the screws
Paint another picture of my black flag blues
Pain another picture of my black flag blues 

Black Sheep chords – H2O

 H2O
Black Sheep
Use Your Voice
2015 Bridge 9 Records
Submitted by: jeremyunderground41

Key: G, F

Tuning: Standard EADGBe

Chords used:
 Em  - 022000
 C  -  x32010
 G  -  320033
 D  -  xx0232
 Dm  - xx0231
 Bb  - x13331
 F  -  133211
 B  -  x24442
 Gm  - 355333
 Eb  - x68886


Intro:

Toby Speaks: Em--
There's a very little
difference in people.
A little difference
makes a big difference.
That little difference
is attitude. The big
difference is wheather
it's positive or
negative. You gotta
keep that PMA.


Em--C-G-D- x2


Verse 1:
 Em C G D 
  Never fit in
 Em 
  I never wanted
   C G D Em 
to        picked
on In school for
     C G D 
my identity
       Em 
Cos I chose to
skate all day
not go to
 C G D 
keg parties



Chorus 1:
 Dm Bb 
  This path was
 C Gm 
  my fate and
     Dm Bb 
I'll  Never find
    F C 
my place in a 9
 F C Dm Bb 
to 5 world  I
   C 
appreciate it
 Gm Dm 
all now  This
 Bb B C B C 
path my fate  No
 B C B C 
9   to 5 world


Verse 2:
 Em C G D 
  My life my rules
 Em 
  Can't tell me
           C G D 
what to do
 Em 
  My brothers
saved me with
      C G D 
this music scene
       Em  
It is somewhere
i belong Not on
     C G D 
the football team


Chorus 2:
 Dm Bb 
  This path was
 C Gm 
  my fate and
     Dm Bb 
I'll  Never find
    F C 
my place in a 9
 F C Dm Bb 
to 5 world  I
   C 
appreciate it
 Gm Dm 
all now  This
 Bb B C B C 
path my fate  No
 B C B C   Dm--  F C Eb Bb C 
9   to 5 world
 Dm F 
  9 to 5 world
    C Eb 
My mind was always
 Bb C Dm 
somewhere else
        F C 
9 to 5 world
         Eb 
There's always
 Bb C Dm    
a  way out
        F C Eb Bb C 
9 to 5 world


Outro:
 Em C G D 
  Never fit in
 Em 
  I never wanted
   C G D       Em(hold)
to     Black Sheep    

Black Heart Tabs – The Damned Things

 Intro:
e|--------------------------------------------------------------------------------------------------|
B|--------------------------------------------------------------------------------------------------|
G|---------------------------------------------------------------------------2h4-------2---4-2-4-4--|
D|--2h4-2h4-2---2h4-x-4-4---4-6h7-4---4-6464-2-4-4-4-6h7-4---4-6-6-4-2-4-4-4-----4-2-4---4---2-4-4--|
A|------------4-----x-4-4-----------7--------2-4-4---------7---------2-4-4-------------------0-2-2--|
E|------------------x-2-2--------------------0-2-2-------------------0-2-2--------------------------|

*these are half note triplets  intro ends, begin verse
e|----------------------------|---------------------------------------------------------------------------|
B|----7-5---------------------|---------------------------------------------------------------------------|
G|--6-----6-5-4---------------|---------------------------------------------------------------------------|
D|--------------7-------------|------2-4-4---------------------2h4---------2-4-4---------------------2h4--|
A|----------------------------|------2-4-4---------------------2h4---------2-4-4---------------------2h4--|
E|----------------------------|--5-4-0-2-2---------------5--4--0h2-----5-4-0-2-2---------------5--4--0h2--|
                                 * * *                                 * * *
e|--------------------------------------------------------------------------------------------|
B|----------7--7-7-7-7-9-7---7--7-7-7-7-9-7---------------------------------------------------|
G|--------4-7--7-7-7-7-9-7-4-7--7-7-7-7-9-7---------------------------------------------------|
D|--------4-9--9-9-9-9-9-9-4-9--9-9-9-9-9-9--4-4---------------------2h4----------------------|
A|--------2----------------2-----------------4-4---------------------2h4----------------------|
E|--5-4-0------------------------------------2-2---------------5--4--0h2---------------5-4-0--|
    * * *
Prechorus (Suddenly not swing 8ths)         Chorus
e|---------------------------------------| |-------------------------------------|
B|---------------------------------------| |-------------------------------------|
G|---------------------------------------| |-------4x4--4-4----------------------|
D|--6664/6664/66666664/6664/6664/6666666-| |--7--7-4x4--4-4-2h4442h4442h4442h444-|  X3
A|--6664/6664/66666664/6664/6664/6666666-| |--7--7-2x2--2-2-2h4442h4442h4442h444-|
E|--4442/4442/44444442/4442/4442/4444444-| |--5--5----------0h2220h2220h2220h222-|
 
after 3rd time, do:
e|-------------------------|
B|-------------------------|
G|--4-4--------------------|   <-- After this part, repeat intro exactly
D|--4-4---------------2-2--|
A|--2-2-4h5-5-5-----5-2-2--|
E|--------------2-5---0-0--|

then repeat verse in full 
*except, when playing the Bm-Emaj 2nd inversion-root part, after the first 5 of the 2nd run, play:
e|-7-5---5h7--|   then continue
B|-----7------|

then prechorus-chorus again but chorus ends differently- lead-in to solo
e|--------------------------------|
B|--------------------------------|
G|--4-4---------------------------|
D|--4-4---------------2-2---------|
A|--2-2-4h5-5-5-----5-2-2-2-2-2h4-|
E|--------------2-5---0-0---------|

Solo:
gtr 2 plays this during 1st part
e|----------------------| |--------------------------|    |-------------------------------------|
B|----------------------| |--------------------------|    |-------------------------------------|
G|----------------------| |---4~-------------------4-| X2 |--6--6-6--6-6------6--6-6--6-6-x2-x4-| X2
D|--4------2-4------2---| |---4~--4---2-4-4--2---2-4-|    |--6--6-6--6-6-4-2--6--6-6--6-6-x2-x4-|
A|--4------2-4------2---| |---2~--4---2-4-4--2---2-2-|    |--4--4-4--4-4-4-2--4--4-4--4-4-x0-x2-|
E|--2------0-2------0---| |-------2---0-2-2--0---0---|    |--------------2-0--------------------|


Gtr 1(in between hits on the first part):
e|------------------------------------------| |--------------------------

Gold Heart Locket chords – Jeff Black

 "Gold Heart Locket"

Usually with a banjo, but when he plays it live, there's often a full band accompaniment. Beautiful song.

 D ,  A ,  Em ,  G ,  D D 
All night long I've been riding riding
         A Em 
I should have been there by now
But these old county roads
Got a lot of deep holes
             G D 
And the rain keeps pouring down
      D   
The bridge is washed out and the rising rising
  A Em 
Waters of the river rush by
And I'm up to my fenders in mud
And to my witness above
               D 
I'm really stuck this time

                G 
I've got a gold heart locket on a silver chain
                 D 
Clinched tight in my fist in the pouring rain
             Em 
And the only road back home again Is all but washed away
 G 
I'm going to cross that river tonight
         D 
No matter what it takes 
                              A 
Although I might die trying
      F#m Em 
My true love will remain
         G D A Em G D 
In a gold heart locket on a silver chain

Open it up and she's lovely lovely
Eyes of hazel green
But I close it up fast 
Because the rain gets past
And lays a tear down on her cheek
I promised her once that I would never ever
Break her heart again
So lord take me there in a silent prayer
And her locket in my hand
 
      Em 
The last thing I remember 
         D 
I was fearing for my life
            Em 
She was calling out my name 
             G 
From over on the other side
  G 
I reached out to hold her
                                         D 
But the break was just too strong
            A 
Now the silence just gets colder
           G 
As the river rages on

 D 
All night long I've been riding riding
         A Em 
I should have been there by now
But these old county roads
Got a lot of deep holes
             G D 
And the rain keeps pouring down
      D   
The bridge is washed out and the rising rising
  A Em 
Waters of the river rush by
And I'm up to my fenders in mud
And to my witness above
               D 
I'm really stuck this time

                G 
I've got a gold heart locket on a silver chain
                 D 
Clinched tight in my fist in the pouring rain
             Em 
And the only road back home again Is all but washed away
 G 
I'm going to cross that river tonight
         D 
No matter what it takes 
                              A 
Although I might die trying
      F#m Em 
My true love will remain
         G D A Em G D 
In a gold heart locket on a silver chain

Black Coffee chords – Ella Fitzgerald V2

 Intro
 C Gm C Gm  ...


Verse 1
     C Gm 
I'm feeling mighty lonesome
 C Gm 
Haven't slept a wink
   C Gm 
I walk the floor & watch the door
     C Gm 
And in between I drink
 F7 
Black coffee
 F7 C Dm Em Bb F 
Love's a hand-me-down brew
             Gm Dm9 
Well, I'll never know a Sunday
 F7 G C Gm C Gm 
In this weekday rule


Verse 2
    C Gm 
I'm talking to the shadows
    C Gm 
One o'clock to four
    C Gm 
And oh how slow the moments go
    C Gm 
When all I do is pour 
 F7 
Black coffee
 F7 C Dm Em Bb F 
Since the blues caught my eye
             Gm Dm9 
Well I'm hanging out on Monday
 F7 G C Gm C Gm 
My Sunday dreams to dry


Bridge
         F Cm 
Well, a man is born to go on lovin'
     Fm Ab C 
A woman's born to weep & fret
         Ab Fm 
To stay home & tend her lovin'
            Ab 
And drown her past regrets
         G 
In coffee & cigarettes


Verse 3: 
    C Gm 
Alone all the morning
    C Gm 
Mourning all the night
    C Gm 
And, in between, it's nicotine
    C Gm 
And not much heart to fight
 F7 
Black coffee
 F7 C Dm Em Bb F 
Feeling low as the ground
             Gm Dm9 
It's drivin' me crazy, this waiting for my baby
 F7 G C Gm C Gm 
To maybe come around


Bridge (Repeat):
         F Cm 
Well, a man is born to go on lovin'
     Fm Ab C 
A woman's born to weep & fret
         Ab Fm 
To stay home & tend her lovin'
            Ab 
And drown her past regrets
         G 
In coffee & cigarettes


Verse 3 (Repeat):
    C Gm 
Alone all the morning
    C Gm 
Mourning all the night
    C Gm 
And, in between, it's nicotine
    C Gm 
And not much heart to fight
 F7 
Black coffee
 F7 C Dm Em Bb F 
Feeling low as the ground
             Gm Dm9 
It's drivin' me crazy, this waiting for my baby
 F7 G C Gm C Gm 
To maybe come around


Outro:
 Am 
My nerves have gone to pieces
 Cdim7 
My hair is turning grey
 F7 
All I do is drink black coffee
 G7 Cm      
Since my man's gone away...


 C Gm C Gm    (instrumental, fade out)

Goodbye Agony Tabs – Black Veil Brides

 guitar1:(2x)
|----------------------------------------------------------------------------------------------------------|
|--------2---3-----------------2---------------------------2-----3-----------------------------------------|
|------4-------------------4-------4-----------------4-------------------------------3--------4-----/6-----|
|----------------------------------------------------------------------------------------------------------|
|----2-----------------------------------------------------------------------------------------------------|
|---------------------5--------------------2---------------------------------4-----------------------------|

guitar2:
|----------------------------------------------------------------------------------------------------------|
|------12----------------------------------------------------------------11----------12----------14--------|
|----------------11------12------11------12-------\9------------12-----------------------------------------|
|----------------------------------------------------------------------------------------------------------|
|----------------------------------------------------------------------------------------------------------|
|----------------------------------------------------------------------------------------------------------|

Intro/Chorus lead part 1:
|---------------------------------------------------------------------14-----------------------------------|
|---12---------12---14---15b----------12---14----15--15b--15b---14--------14----12------11---12------------|
|----------11-----------------------11---------------------------------------------------------------------|
|----------------------------------------------------------------------------------------------------------|
|----------------------------------------------------------------------------------------------------------|
|----------------------------------------------------------------------------------------------------------|

|---------------------------------------------------------------------14-----------------------------------|
|---12---------12---14---15b----------12---14----15--15b---15b---14--------14----12----11---12b------------|
|--------11-----------------------11-----------------------------------------------------------------------|
|----------------------------------------------------------------------------------------------------------|
|----------------------------------------------------------------------------------------------------------|
|----------------------------------------------------------------------------------------------------------|

Chorus Lead part2:
|----------------------------------------------------------------------------------------------------------|
|------12--------------------------------------------------------------11----------12------------14--------|
|-------------11------12------11-----12----11-----12------9-----12-----------------------------------------|
|----------------------------------------------------------------------------------------------------------|
|----------------------------------------------------------------------------------------------------------|
|----------------------------------------------------------------------------------------------------------|
solo:

|---14b---14b---12-10---14p10---------------------10------------------14p10--------------------------------|
|--------------------------------12--10--12-------------14--12--14------------12---------------------------|
|----------------------------------------------------------------------------------------------------------|
|----------------------------------------------------------------------------------------11----12b---------|
|----------------------------------------------------------------------------------------------------------|
|--------------------------------------------------------------------------------------------------

Black Eyes chords – Radical Face V3

 Black Eyes by Radical Face


~ = Silent
Standard tuning

This is clearly not the original tune but with these chords it's easier to play
 as a beginner and it's also easier for people who have a lower singing range to sing


  Em C D G 
 when you last left me, my blood was in a jar
           C Em D G 
 and you kept it on your mantelpiece
    Em C D G     
 I couldn't count on anyone to stand there behind me
     C Em D C Em 
 and keep the dogs from dragging me off with them


  C Em C Em 
 while I slept, you crept in
                 G D C D 
 and pulled the rug right out from under me
  C Em C Em 
 in the rain, y' stole away
               G D C D  
 and took the parts that kept me functioning
      Em C G D Em 
 now my heart will be blacker than your eyes when I'm through with you


  C G D 


 ~                   Em C 
 and I said, “This life ain't no love song.”
        D G 
 while I marched on blindly
         C Em D Em 
 and my knuckles dragged across the walls
 ~        Em C 
 and the birds up there mock me
          D Em 
 and the scenery's turned wicked
           C Em D Em 
 and your name is trapped beneath my tongue


  Em D A C Em 
 all of the roads are one now, each choice is the same
          D A C Em  
 all the roads, they are one now, each choice is the same
          D A C Em  
 I won't show my hands now, I know this ain't a game
          D A C         
 all the roads, they are one now, each choice is...


  Em C G 
 take a step, take another step, take another step
         D Em 
 not a care for where they fall
        Em C G 
 you burned me, yeah, you've burned me, yeah, you've burned me now
  C G 
 one too many times
   Em A 
 my thoughts are the cold kind
         C D Em 
 I got storm clouds that are brewing behind my eyes

      Em C G D Em 
 and my heart will be blacker than your eyes when I'm through with you.

Dont Talk To Me chords – Orange Is The New Black

 Hello! I looked up the song to find chords and couldn't find any, so I made something up that sounds right!
You can repeat over and over. I hope you enjoy!

CAPO 4

 Am Em 
Stop, don't talk to me.

 C G 
Loser, Lame-Ass, Wanna Be.

       Em C D 
Like, Oh, Totally.

 Am Em 
Stop, don't talk to me.

 C G 
Loser, Lame-Ass, Wanna Be.

       Em C D 
Like, Oh, Totally.

 Am Em 
Stop, don't talk to me.

 C G 
Loser, Lame-Ass, Wanna Be.

       Em C D 
Like, Oh, Totally.

 Am Em 
Stop, don't talk to me.

 C G 
Loser, Lame-Ass, Wanna Be.

       Em C D 
Like, Oh, Totally.

 Am Em 
Stop, don't talk to me.

 C G 
Loser, Lame-Ass, Wanna Be.

       Em C D 
Like, Oh, Totally.

Black Magic chords – Little Mix V2

 NO CAPO! 

 E 
All the girls on the block knocking at my door!
 E 
Wanna know what it is make the boys want more!
(Pause)

 E 
Is your lover playing on your side?
 E 
Said he loves you,
 E 
But he ain't got time.
 A 
Here's the answer.
 A 
Come and get it
 A E 
At a knocked down price.


 E 
Full of honey,
 E 
Just to make him sweet.
 E 
Crystal balling,
 E 
Just to help him see
 A 
What he's been missing.
 A 
So come and get it,
 A E 
While you've still got time.


 C#m B 
Get your boy on his knees and repeat after me, say

 E 
Take a sip of my secret potion,
 E 
I'll make you fall in love.
 A 
For a spell that can't be broken,
 A 
One drop should be enough.
 C#m 
Boy, you belong to me,
 B 
I got the recipe
 A A 
And it's called black magic(and it's called black magic)

 E 
Take a sip of my secret potion,
 E 
One taste and you'll be mine.
 A 
It's a spell that can't be broken
 A 
It'll keep you up all night
 C#m 
Boy, you belong to me,
 B 
I got the recipe
 A A 
And it's called black magic(and it's called black magic)


 E 
If you're lookin' for Mr. Right,
 E 
Need that magic to change him over night.
 A 
Here's the answer.
 A 
Come and get it,
                        E 
While you've still got time.

 C#m B 
Get your boy on his knees and repeat after me, say

 E 
Take a sip of my secret potion,
 E 
I'll make you fall in love.
 A 
For a spell that can't be broken,
 A 
One drop should be enough.
 C#m 
Boy, you belong to me,
 B 
I got the recipe
 A A 
And it's called black magic (and it's called black magic)

 E 
Take a sip of my secret potion,
 E 
One taste and you'll be mine.
 A 
It's a spell that can't be broken
 A 
It'll keep you up all night
 C#m 
Boy, you belong to me,
 B 
I got the recipe
 A 
And it's called black magic (and it's called black magic)


 E 
All the girls on the block knockin' at my door!(I got the recipe)
 E 
Wanna know what it is make the boys want more!(now you belong to me) [2x]

 E 
Take a sip from my secret potion,
 E 
I'll make you fall in love.
 A 
For a spell that can't be broken,
 A 
One drop should be enough.
 C#m 
Boy, you belong to me (hey!)
 B 
I got the recipe.
 A A A E A 
And it's called, and it's called, and it's called black magic!

 E 
Take a sip of my secret potion,
 E 
One taste and you'll be mine.
 A 
It's a spell that can't be broken
 A 
It'll keep you up all night
 C#m 
Boy, you belong to me,
 B 
I got the recipe
 A A 
And it's called black magic(and it's called black magic)

 E 
Falling in love (hey!)
 E 
Falling in love (hey!)
 A 
Falling in love (hey!)
 A 
Falling in love (hey!)
 C#m 
Falling in love (hey!)
 C#m 
Falling in love (hey!)
 B 
Falling in love (hey!)
Falling in love (hey!)

 E 
Magic!

Black Sun chords – Death Cab For Cutie V2

 Death Cab For Cutie - Black Sun
Capo 7th   
Intro
  Em               | D                | Am                |                 ||x2
-----------------|----------------|-----------------|-----------------|
-----------------|----------------|-----------------|-----------------|
-----------------|----------------|-----------------|-----------------|
-2---2---2---2---|0---0---0---0---|-----------------|-7---7---7---7---|
---2---2---2---2-|--2---2---2---2-|-0---0---0---0---|---0---0---0---0-|
-----------------|----------------|---3---3---3---3-|-----------------|


Verse 1
 Em D Am 
 There is whisky in the water and there is death upon the vine
 Em D                                    
 There is fear in the eyes of your father 
Am                                   Em*  (A)-7-7-7-5--
 And there is "Yours" and there is "Mine" (E)--0-0-0-0-
 Em D Am 
 There is a desert veiled in pavement and there's a city of seven hills
Em                               D    Am                         Em** (A)-7-5-7-5--
 And all our debris flows to the ocean to meet again, I hope it will  (E)--0-0-0-0-


Chorus
      C G/B       Dadd4(9)     Em 
---------------------------------------------
--------1----------3--------5----------8-----
-------0--0-------0--0-----0--0-------0--0---
------2----2-----0----0---4----4-----5----5--
-----3----------2--------5----------7--------
---------------------------------------------
How could something so fair be so cruel
        C G/B D Em 
When this black sun revolved around you


Interlude     Em     | D      | Am     |      ||


Verse 2
 Em D Am 
 There is an answer in a question and there is hope within despair
 Em D Am                 Em*
 And there is beauty in a failure and there are depths beyond compare
 Em D Am 
 There is a role of a lifetime and there's a song yet to be sung
 Em D Am                              Em**
 And there's a dumpster in the driveway of all the plans that came undone


Chorus
      C G/B D Em 
How could something so fair be so cruel
        C G/B D Em 
When this black sun revolved around you
      C G/B D Em 
How could something so fair be so cruel
        C G/B D Em 
When this black sun revolved around you


Solo   Em     | D      | Am      |      |
       Em     | D      | Am      | Em     ||


Verse 3
 Em D Am 
 There is whisky in the water and there is death upon the vine
 Em D       Em**
 And there is grace within forgiveness but it's so hard for me to find



Chorus
      C G/B D Em 
How could something so fair be so cruel
        C G/B D Em 
When this black sun revolved around you
      C G/B D Em 
How could something so fair be so cruel
        C G/B D Em 
When this black sun revolved around you

The Black Lungs chords – Black Lungs V2

 http://youtu.be/zom0VF5wWMM?t=5m38s

 C Am F G               

 c              Am F G 
Time was in a vacuum when i wanted to be free
 C Am F G   
and now my adolesecence has all but left me
 C Am F G   
i coulda stayed another day but that would be wrong
 C Am F G   
and you'd just grow tired of me before too long

        Am G 
i said no i must go
             C F 
i'm not the one you want  though i know you think so
 C F 
cause i'm a bad man
 C F 
i'm a bad man 
 C F 
i'm a bad man
 C G 
but i'm, i'm too good for you
           F                                           
my susy true

 C Am F G C Am F G 
our time was an obsession but only just for me
      C Am F G   
and you can't tell by the sound of my shoes babe i'm gonna leave

 C Am F G   
even if you plead with me to say you would be true
      C Am F G   
its too late for long goodbye's honey we are through


        Am G 
i said no i must go
             C F 
i'm not the one you want  though i know you think so
 C F 
cause i'm a bad man
 C F 
i'm a bad man 
 C F 
i'm a bad man
 C G 
but i'm, i'm too good for you
           F                                           
my susy true

 C Am F G C Am F G F

Oh Coal Black Smith chords – Current-93

 Artist : Current 93
Title : Oh Coal Black Smith

Verse:

 Em C   x4

 Em C 
Oh she looked out of the window

 Em C 
As white as any milk

 Em C 
But he looked in the window

 Em C 
As black as any silk

 Em C 
"Hello hello hello hello

 Em C 
Hello you coal black smith

 Em C 
Oh what is your silly song?

 Em C 
You shall never change my maiden name

 Em C 
That I have kept so long

 Em C 


Chorus:

 Em C 
I'd rather die a maid, yes"

 Em C 
But then she said

 Em C 
"And be buried in my grave, yes"

 Em C 
And then she said

 Am 
"Than I'd have such a nasty, husky, dusky, musty, fusty coal black smith,

 Em C  x2

Verse:

 Em C 
A maiden will I die"

 Em C Em C 
A maiden will I die"

 Em C Em C 
Then she became a duck

 Em C 
A duck all on the stream

 Em C 
And he became a water dog

 Em C Em C 
And fetched her back again

 Em C  x2

 Em C 
Then she became a hare

 Em C 
A hare all on the plain

 Em C 
And he became a greyhound dog

 Em C Am 
And fetched her back again

 Em C 
Then she became a fly

 Em C 
A fly all in the air

 Em C 
And he became a spider

 Em C Em C 
And fetched her to his lair

 Em C  

Chorus:

 Em C 
I'd rather die a maid 

 Em C 
But then she said

 Em C 
"And be buried in my grave 

 Em C 
And then she said

 Am 
"That I'd have such a nasty, husky, dusky, musty, fusty coal black smith,

 Em C  x2

:|When you reach this point, repeat everything above

Verse:

 Em C 
A maiden will I die"   x7

 Em C Em C 
Oh she looked out of the window

 Em C 
As white as any milk

 Em C 
But he looked in the window

 Em C 
As black as any silk

 Em C 
"Hello hello hello hello

 Em Am 
Hello you coal black smith

 Am 
Oh what is your silly song?

 Am 
You shall never change my maiden name

 Am Em 
That I have kept so long

 Em C  x2


Chorus:

 Em C 
I'd rather die a maid 

 Em C 
But then she said

 Em C 
"And be buried in my grave 

 Em C 
And then she said

 Am 
"That I'd have such a nasty, husky, dusky, musty, fusty coal black smith,

 Em C 
A maiden will I die" 


Verse:

 Em C 
Then she became a duck

 Em C 
A duck all on the stream

 Em C 
And he became a water dog

 Em C 
And fetched her back again

 Em C 
Then she became a hare

 Em C 
A hare all on the plain

 Em C 
And he became a greyhound dog

 Am 
An

Hate The Taste Tabs – Black Rebel Motorcycle Club

 Song: Hate The Taste
Artist: Black Rebel Motorcycle Club
 Specter at the Feast
Guitarist: Peter Hayes
Tuning: Standard
: Pini-Glock

Another song by Black Rebel Motorcycle Club which wasn't tabbed yet. It's only the guitar of Peter.

Tab taken from this video: https://www.youtube.com/watch?v=GWZ5piWRQ14

If you have suggestions or questions you can always leave a comment or contact me at my UG page! :)

Anyways enjoy this great song!

Cheers Nick! 

Intro & Verses: 

e|-----------------------|
B|-----------------------|
G|-----------------------|
D|-----------------------|
A|-------------3-1-------|
E|--1-1-3-1--1-----3-1-3-|

Chorus: (I wanna ride with you...)

e|-----------------------|
B|--3-3-3-3--------------|
G|----------5-3----------|  Repeat this part 3 times. 
D|-----------------------|
A|-----------------------|
E|-----------------------|

Then: 

e|------------------------------------|
B|------------------------------------|
G|--5b-5--3-4-3-0---------------------|
D|------------------------------------|
A|------------------------------------|
E|------------------------------------|

Bridge: (I'm a mess...)

e|--3-3-0-3-3-3-0-3-3-0-3-3-3-0-3-3-0-3-3-3----------------------|
B|--3-3-0-3-3-3-0-3-3-0-3-3-3-0-3-3-0-3-3-3-5b-5b-5b-5b----------|
G|--3-3-0-3-3-3-0-3-3-0-3-3-3-0-3-3-0-3-3-3----------------------|
D|---------------------------------------------------------------|
A|---------------------------------------------------------------|
E|---------------------------------------------------------------|

Chorus: (I wanna ride with you...)

e|-----------------------|
B|--3-3-3-3--------------|
G|----------5-3----------|  Repeat this part 3 times. 
D|-----------------------|
A|-----------------------|
E|-----------------------|

Than: 

e|------------------------------------|
B|------------------------------------|
G|--5b-5--3-4-3-0---------------------|
D|------------------------------------|
A|------------------------------------|
E|------------------------------------|


Do The Rump Tabs – Black Keys

 -------------------------------------------------------------------------------
                             Do The Rump - The Black Keys
-------------------------------------------------------------------------------
: Tom Ryan     
 Tom.Ryan.313

Tuning: Standard

e|---------------------------------------------------------------------------|
B|---------------3-----------5b6(6)------------3-------------3---------------|
G|---------------------------------------------------------------------------|
D|-----------3h4-------------5-------------3h4-----------3h4-----------------|
A|-5-5-3-5-5-------5-5-3-5-5-----5-5-3-5-5-------5-5-3-5---------------------|
E|---------------------------------------------------------------------------|

e|------------------x---x-x-x----3-------------------------------------------|
B|------------------x---x-x-x--6---6--(6)-------------------3----------------|
G|---5-5p4-2/4-(4)--x---x-x-x------------------------------------------------|
D|------------------x---x-x-x-------------3b4-----------3h4------------------|
A|-0----------------x---x-x-x-----------------5-5-3-5-5----------------------|
E|------------------x---x-x-x------------------------------------------------|

e|--------------------3-5-3---3--3-5-3---------3-----------------------------|
B|----------------------------------------6--6---6---------------------------|
G|---------5-4-2---2---------------------------------------------------------|
D|-----------------2----------------------------------x-x-5b6br5p3-----------|
A|-5-5-3-5-------0----------0-------------------------x-x--------------------|
E|-------------------------------------3------------3-x-x--------------------|

e|---------------------------------------------------------------------------|
B|---------------3-----------------------------------------------------------|
G|------------------------------5-7------------------------------------------|
D|-----------3h4------------5/7-------------5b6-3----------------------------|
A|-5-5-3-5-5-------5-5-3-5----------5-5-3-5-------5--------------------------|
E|---------------------------------------------------------------------------|

e|---------------------------------------------------------------------------|
B|-----------------------------------------8b9br8p6------------8b9br8p6------|
G|-------------5-7-5--------------------------------7-(7)---------------7----|
D|---------5/7-------7-5-3-5/7-3---------------------------------------------|
A|-5-5-3-5-----------------------5-5-5-3-5-------------5-5-3-5---------------|
E|---------------------------------------------------------------------------|

e|---------------------------------------------------------------------------|
B|----------8b9-6-8-8b9br8p6-----------------------5b6---------------3-------|
G|-(7)-----------------------7p5---------------------------------------------| 0:58
D|-------------------------------7/5p3-------------5-------------3h4---------|
A|--5-5-3-5----------------------------5-5-5-3-5-5-----5-5-3-5-5-------------|
E|---------------------------------------------------------------------------|

e|---------------------------------------------------------------x---x-x-x---|
B|------------5b6---------------3-------------3------------------x---x-x-x---|
G|------------------------------------------------5-5p4-2/4-(4)--x---x-x-x---|
D|------------5-------------3h4-----------3h4--------------------x---x-x-x---|
A|--5-5-3-5-5-----5-5-3-5-5-------5-5-3-5-------0----------------x---x-x-x---|
E|---------------------------------------------------------------x---x-x-x---|

e|---3----------------------------------------------3-5-3---3--3-5-3---------|
B|-6---6--(6)-------------------3--------------------------------------------|
G|----------------------------------------5-4-2---2--------------------------|
D|------------3b4-----------3h4-------------------2--------------------------|
A|----------------5-5-3-5-5-------5-5-3-5-------0----

Overture Tabs – Black Veil Brides

 So this is my first tab and I'm not sure if this is right or not but I'm just a beginner so I don't have much 
experience.
Anyways...... I hope you enjoy it :)




e|-1-0------1-0------1-0---------------------------------------|
B|-----3--------3--------3---------------0------------0--------|
G|-------2--------2--------2-----------2----2-------2---2------|
D|----------------------------3-2-0--0---------3--3-------3----|
A|-------------------------------------------------------------|
E|-------------------------------------------------------------|


e|---------------------5-7-5-----5-7-5----------5-3------------|
B|---------------------------6~--------6-3--3-6-----6-6--------|
G|-------2----------2------------------------------------------|
D|-3-0-3---5-3--3-5--------------------------------------------|
A|-------------------------------------------------------------|
E|-------------------------------------------------------------|


e|-3~-5-3-5-7-8---7-5-7-5---10--10-8-5—5~-3-5--3---3-5-3-5-7-8-|
B|------------------------3----------------------6-------------|
G|-------------------------------------------------------------|
D|-------------------------------------------------------------|
A|-------------------------------------------------------------|
E|-------------------------------------------------------------|


e|-7-5-7-5---10—10~-8-5—5~-3-5--3-1-3-5---5--5-7-5-5--5-7-5-5--|
B|---------3----------------------------3----------------------|
G|-------------------------------------------------------------|
D|-------------------------------------------------------------|
A|-------------------------------------------------------------|
E|-------------------------------------------------------------|


e|-5-7-5-5--5-7-5-5--5-7-3-5--3---3-5---5--5-7-5-5--5-7-5-5----|
B|------------------------------6-----3------------------------|
G|-------------------------------------------------------------|
D|-------------------------------------------------------------|
A|-------------------------------------------------------------|
E|-------------------------------------------------------------|

e|-5-7-3-5--3---3-5-5-5--5---3-5------3-5-7-5--3---3~----0---0-|
B|------------6------------6------3-6------------6-----3---6---|
G|-------------------------------------------------------------|
D|-------------------------------------------------------------|
A|-------------------------------------------------------------|
E|-------------------------------------------------------------|


e|-0---------------------------8-8-8-8-7----8-8-8-8-7---3------|
B|---3-1--------0------------------------6------------6--------|
G|------------2---2--------------------------------------------|
D|--------3-5-------5—-3~-5-0----------------------------------|
A|-------------------------------------------------------------| 
E|-------------------------------------------------------------|




e|-5-7-5-3---3--3-3~-5--5-5-5---3--5---8-8—-8~-5-7-------------|
B|---------6------------------6------6-------------------------|
G|-------------------------------------------------------------|
D|-------------------------------------------------------------|
A|-------------------------------------------------------------|
E|-------------------------------------------------------------|

e|-7-5-3---0-6--------------0----------------0-----------------|
B|-------3----------------3---6------------3---6---------------|
G|-------------------------------------------------------------|
D|----------------0-2-3-2----------0-2-3-2---------------------|
A|-------------0----------------0----------------0-------------|
E|-------------------------------------------------------------|

e|-----------0--------9-10~-10---------------------------------|
B|---------3---6-3--6------------------------------------------|
G|-------2-----------------------------------------------------|
D|-0-2-3-------------------------------------------------------|
A|--------------------------------------

In Our Prime Tabs – Black Keys

 Hi, so I couldn't find a good tab of this anywhere, which is surprising since its SUCH a good song.
Any ways, I'm only really not 100% on a couple of the chords, but everything else should be fine hopefully.

I also apologize for not being able to incorporate the timings as well as I could have!

Intro - Lead guitar  (while the piano is playing)

e:----------------------------------------6~--------------------------------6~---|
B:--7/9--7-------------9-----------11-----7~--------9----9-----------11-----7~---|
G:---------8--6------8---8------10----10--8~--------8-8----8------10----10--8~---|
D:---------------8/9-------9/11-----------8~--------9--------9/11-----------8~---|
A:-------------------------------------------------------------------------------|
E:-------------------------------------------------------------------------------|

First section of the song

The acoustic guitar plays the chords B major, C# major, and D# minor as below:

B                 C#          D#m

"Pour me down the drain, I disappear"

etc

and the lead guitar plays fills and picks the chords above, as follows (included the times if it helps):

Fill 1 (0:34)                                         Fill 2 (0:41)

e:--6h9p6--------------------|-------------------6--|-6-9-6----------|
B:--------7h9p7-----7--------|-------------11----7--|-------9-7--9-7-|
G:--------------6h8---8p6----|----------10-------8--|----------------|
D:------------------------9~-|---9/11------------8--|----------------|
A:---------------------------|----------------------|----------------|
E:---------------------------|----------------------|----------------|

Then for the rest of the first part of the song, the lead guitar will pick slightly varying patterns of 

e:-------------------------6~-|
B:------9-----------11-----7~-|
G:----8---8------10----10--8~-|
D:--9-------9/11-----------8~-|
A:----------------------------|
E:----------------------------|

While playing licks after the D# minor chord is played

Fill 3 (0:49)                  Fill 4 (0:54)             Fill 5 (1:03)       Fill 6 (1:08)

e:--6h9p6--------------------|------6--6--6-------------|-------------------|--6-----|
B:--------7h9p7-----7--------|----7----------7p6---6----|------7~--7h9p7----|----7---|
G:--------------6h8---8p6----|--8----------------8---8--|-----------------8-|------8-|
D:------------------------9~-|--------------------------|--6h8--------------|--------|
A:---------------------------|--------------------------|-------------------|--------|
E:---------------------------|--------------------------|-------------------|--------|


Second Part

Here I wasn't actually able to hear the lead guitar very well, but from what I did hear, it basically
sounded like the guitarist was just picking the chords that the acoustic guitar was playing, but in 
different patterns and variations. Either way, I apologize again.

A# minor is strummed for 2 bars i think, and then 

A#m                         G#m                              D#m 

"Every now and then, I see a face from way back when, and I explode"

A#m                             G#m                            F#                    A# / A#7

"Friends no longer aid me, only bullshit serenade me like it's gold, how that we're told" 

This part of the song transitions to the next with a strum of the D# minor chord.



Third Part

Again I apologize I couldn't hear the lead guitar too well, and so I didn't manage to tab it out

B major, C# major, and D# minor are played three times through, and then G# minor, A# minor, A# major and 
A# major 7 is played once through, then

B                 C#            D#m

"Like every lover hovers in my mind" 

etc; then

    G#m             A#m              A#m      /  A#7

"We had it all when we were in our prime"


Outro Solo (everything should be fine except for the note marked with *, not entirely sure if thats correct)

e:------------------------------------------------------------------------------------|

A Girl Like You Live Tabs – Black Keys

 -------------------------------------------------------------------------------
                             SONG NAME - Band Name
-------------------------------------------------------------------------------
: dzingariello
 dario.zingariello

Tuning: EADGBe

A Girl like you, originally by Edwyn Collins, as played by The Black Keys 
on a web exclusive of the Tonight Show with Jimmy Fallon.

https://www.youtube.com/watch?v=MowHQDsaSOI



Intro / Chorus
e|-------------------------------------------------------------------------------------|
B|-------------------------------------------------------------------------------------|
G|--------10-(11/12\11)----------------15-12----------10-(11/12\11)--------------------|
D|--10-13--------------10-10----10-13-----------10-13--------------10-10----10-12--8-10|
A|-------------------------------------------------------------------------------------|
E|-------------------------------------------------------------------------------------|

Verse:
e|-------------------------------------------|
B|-------------------------------------------|
G|-------------------------------------------|
D|--10---8-------------8---------------------|
A|-----------10---8-8-10-----10--------------|
E|-------------------------------------------|



************************************

| /   slide up
| \   slide down

************************************

I Wont Forget You chords – Black Diamond Bay

 Capo 1

Intro:  Bm G D A Bm G D 
I would lace together pretty words
      A Bm              
And tie them about your neck
           G D            
So they sparkle on your face
      A Bm      
And pin such dreams to your clothes
         G D A Bm    
So you can wear them everywhere you go, everywhere you go.

 G D A Bm 
I won’t forget you, I need the pain.

 Bm G D         
I would blend a palette of melodies
  A Bm               
To paint upon your skin
          G D           
So your reflection sings,
      A Bm            
And conduct your very breath
      G D A Bm    
To play along in harmony, to play in harmony.

 G D A Bm 
I won’t forget you, I need the pain.

 Bm G D A Bm 
Yet I am drowning in memories that stick to me like oil
      G D A Bm 
And suck me beneath a sea I would swim so easily
        G D A Bm 
I can lace nothing, I can blend nothing.

 G D A Bm 
I won’t forget you, I need the pain.
 Bm G D 
I couldn't lie
     A Bm                   
I couldn't lie
     G D                   
I looked in your eyes
       A Bm            
And couldn't lie

Shes Long Gone Tabs – The Black Keys

 The Black Keys – She’s Long Gone                                                        


Guitar 1 – Standard
Guitar 2 - Standard

Intro

Guitar 1
e|--------------------------------0----------------------------------0--|
B|--------------------------------0----------------------------------0--|
G|----------------------------------------------------------------------|
D|---2-(h)2---0-------0----------------2-(h)2---0-------0---------------|
A|--------------2p0h2---2-------------------------2p0h2---2-------------|
E|-0----------------------3--3(s5)--0-----------------------3----(s5)---|

e|----------------------------------------------------------------------|
B|---------------------------------0------------------------------------|
G|---------------------------------0--------------------------2b3--2-0--|
D|---2-(h)2---0-------0-----------------2-(h)2---0-------0--------------|
A|--------------2p0h2---2--------------------------2p0h2---2------------|
E|-0----------------------3--3(s5)---0----------------------------------|

Guitar 1
e|--------------------------------------0-----------------------------------0-----|
B|--------------------------------------0-----------------------------------0-----|
G|--------------------------------------------------------------------------------|
D|-----2--(h)2----0----------0-----------------2-(h)2---0-------0-----------------|
A|-------------------2p0h2-----2--------------------------2p0h2---2---------------|
E|-0-----------------------------3-3(s5)--0------------------------3----(s5)------|
Guitar 2***************************************************************************
e|--------------------------------------------------------------------------------|
B|--------------------------------------------------------------------------------|
G|--------------------------------------------------------------------------------|
D|---14-(12h)14--12----------12-------------14-(12h)14--12---------12h14-(12)-14--|
A|------------------14-12h14----14s10----------------------14---------------------|
E|--------------------------------------------------------------------------------|


Guitar 1
e|--------------------------------------0-----------------------------------0-----------|
B|--------------------------------------0-----------------------------------0-----------|
G|--------------------------------------------------------------------------------------|
D|-----2--(h)2----0----------0-----------------2-(h)2---0-------0-----------------------|
A|-------------------2p0h2-----2--------------------------2p0h2---2---------------------|
E|-0-----------------------------3-3(s5)--0------------------------3----(s5)------------|
Guitar 2*********************************************************************************
e|--------------------------------------------------------------------------------------|
B|-------------------------------------------------------------------15—15h17p15--------|
G|-------------------------------------------------------------14s16-------------16s14--|
D|---14-(12h)14--12----------12-----------------14-(12h)14------------------------------|
A|------------------14-12h14----14s10---12p10-------------------------------------------|
E|--------------------------------------------------------------------------------------|

Verse

e|--------------------------------0----------------------------------0--|x4     
B|--------------------------------0----------------------------------0--|
G|----------------------------------------------------------------------|
D|---2-(h)2---0-------0----------------2-(h)2---0-------0---------------|
A|--------------2p0h2---2-------------------------2p0h2---2-------------|
E|-0----------------------3--3(s5)--0-----------------------3----(s5)---|

Chorus

Guitar 1
e|--------------------------------------------------------------|
B|--------------------------------------------------------------|
G|-------------------------------------------------------------