Tag: black

Black Memories chords – The Growlers

 The Growlers - Black Memories
Song: http://www.youtube.com/watch?v=bQUTASfaYJg&index=2&list=PL5jyahL7x5ObLCYZPjdRbohIOtjSHgPbl

INTRO
 C Em  \ 2x
 G       /

VERSE 1
 C Em G 
Pretending it’ll get better when you’re not around
Finally free but I’m lying to me
 C Em D      
 Searching for the black memories to show my heart what I need
             Em Dm 
But nothing puts me at ease

CHORUS
 C Dm 
Where are you going
 Em Dm C 
 Come back with my heart
 C Dm 
Sure as the wind keeps blowing
 Em Dm C 
Nothing’s gonna heal these scars

INTERLUDE
 C Em G C Em D 

VERSE 2
 C Em 
Broken promises you’ve given me
 G 
 Make me wanna live a live without words
 C Em 
Expectations died before birth
 D Em Dm 
 Trying to kill the pain before it hurts

CHORUS
 C Dm 
Where are you going
 Em Dm C 
 Come back with my heart
 C Dm 
Sure as the wind keeps blowing
 Em Dm C 
Nothing’s gonna heal these scars

INTERLUDE
 A Em Dm C Em Dm C Am Em 

VERSE 3
 C Em 
You strike me at ten times my weight
      G 
In a vegetable state so they lock me away
 C Em D 
 Pretending it’ll get better when you’re not around
                      Em Dm 
Finally free but I’m lying to me

CHORUS (2x)
 C Dm 
Where are you going
 Em Dm C 
 Come back with my heart
 C Dm 
Sure as the wind keeps blowing
 Em Dm C 
Nothing’s gonna heal these scars

If All I Thought Were True chords – Attack In Black V4

 Attack in Black - If All I Thought Were True 
Chords/Tab

By Nathan Wisla

I tabbed what I could distinctly hear, but there are more subtleties to it than this.
Capo 3rd fret so you can easily do pull offs in the chords 

If you are playing the chords, ignore the chords above the tab parts, and if you are playing the tab parts,
ignore the chords above the lyrics.
///////////////////////////////////////////////////////////////////////////////////////////////////////////

Capo 3rd fret

Intro Chords:  C  -  G  -  D  -  C  -  G  -  D  (x3) 

Intro Riff
    Cmaj7 G Cmaj7 G D       
|-------------------------------------------------------------------------------0-----2--------------|
|-0-----------------------------0------------------------------------------------3----3--------------|
|-------2-----0---------0-------------2---------------------0-------------------------2--------------|
|-------------------0h2---------------------0-2---------0h2-------0h2p0---0-----------0--------------|
|-3---3---3---3---3-------2---2---2---2---2---3---3---3---3---3---3-------2---2---2---0---0---2---3--|
|----------------------------------------------------------------------------------------------------|

  C  -  G  -  D  (x2)

Verse 1
 C G D C G D 
if priests and princes' hollowed shadowed souls
 C G D C G D 
if devils are but angels cast to know
 C G D C G D 
i live forever with a sharp regret
 C G D Am Em C 
it might be a surprise to know i never wished for death


Pre-chorus (play tabs over top if you have a second guitar)
   D Cmaj7 G 
|-2-----------3-----------0-------------0---------| x3
|-------3-----------0-----------3-----3-------3---|
|-------------------------------------------------|
|-0---0---0---2---2---2---------------------------|
|-------------------------3---3---3---2---2---2---|
|-------------------------------------------------|
   D Cmaj7 G 
|-2-----------3-----------0--------------------------|
|-------3-----------0-----------3-----3h5-(let ring)-| 
|----------------------------------------------------|
|-0---0---0---2---2---2------------------------------|
|-------------------------3---3---3---2--------------|
|----------------------------------------------------|

 D G C G D G C 
a hint of misery made its way alo---ng
 D G C G D G C  (let ring)
to those who've never harmed or never wronged


Chorus
            C 
if honesty changed the hearts of men
              G 
who could contend?
 D G C  
if all i thought were true
   (G)           D G C 
in this great divide that is my life
           D G Am    
i fear to think of all i'd undo
    Em D Cmaj7 
if all i thought were true...


Bridge 1
 Cmaj7  -  G  -  D  -  C  -  G  -  D C  -  G  -  D  -  C  -  G  -  D 

Verse 2 (/ = mute by slapping the guitar)
 C     /       G D C        /        G D 
even my own eyes would neve

The Baddest Man Alive Tabs by Black Keys V2

 -------------------------------------------------------------------------------
                              The Black Keys (with RZA) - The Baddest Man Alive 
-------------------------------------------------------------------------------
Album : The Man With The Iron Fists (2012)
Tempo : 84
 gwendal.mollo@orange.fr
: newg


Just two chords during the song : Am and Dm.
Check my Guitar pro 6 version.

Intro :
    Am       Am      Dm      Dm      Am
E |--17---|--17---|--20---|--20---|-------|
B |-------|-------|-------|-------|--22---|
G |-------|-------|-------|-------|-------|
D |-------|-------|-------|-------|-------|
A |-------|-------|-------|-------|-------|
E |-------|-------|-------|-------|-------|

Guitar 1 :
Intro/Verse/Chorus/Outro
                 Am                  
E |--------------5-----------------------5-------------|
B |--------------5-----------------------5-------------|
G |--------------5-----------------------5-------------|
D |--------------7-----------------------7-------------|
A |----------------------------------------------------|
E |----------------------------------------------------|  x5
 
                 Dm
E |--------------5-----------------------5-------------|
B |--------------6-----------------------6-------------|
G |--------------7-----------------------7-------------|
D |--------------7-----------------------7-------------|
A |--------------5-----------------------5-------------|
E |----------------------------------------------------| x2

Guitar 2 :
Play on octave up.
                Am
E |--------------12----------------------12------------|
B |--------------13----------------------13------------|
G |--------------14----------------------14------------|
D |----------------------------------------------------|
A |----------------------------------------------------|
E |----------------------------------------------------| x5

             Dm
--------------17----------------------17------------|
--------------18----------------------18------------|
--------------19----------------------19------------|
----------------------------------------------------|
----------------------------------------------------|
----------------------------------------------------| x2

Guitar 3 :
Palm mute + small disto.
    
     Am
E |--------------------------0-------------------------|
B |--------------------1M----------1M----3h-1----------|
G |--2M----------2M----------------------------2h-0----|
D |----------------------------------------------------|
A |----------------------------------------------------|
E |----------------------------------------------------| x5

  Am
--------------0-------------|
-----------1--------3--1----|
--2M-2M-2M-------2----------|
----------------------------|
----------------------------|
----------------------------| variation


    D5
E |----------------------------------------------------|
B |--3-----3-----3-----3-----3-----3-----3-----3-------|
G |--2-----2-----2-----2-----2-----2-----2-----2-------|
D |--0-----0-----0-----0-----0-----0-----0-----0-------|
A |----------------------------------------------------|
E |----------------------------------------------------|

 Dm
--1-----1-----1-----1-----1-----1-----1-----1-------|
--3-----3-----3-----3-----3-----3-----3-----3-------|
--2-----2-----2-----2-----2-----2-----2-----2-------|
--0-----0-----0-----0-----0-----0-----0-----0-------|
----------------------------------------------------|
----------------------------------------------------| x1

Or :
     Dm
E |----------------------------------------------------|
B |----------------------------------------------------|
G |----------------------------------------------------|
D |--7M----7M----7M----7M----7M----7M----7M----7M------|
A |--5M----5M----5M----5M----5M----5M----5M----5M------|
E |----------------------------------------------------|

Takkan Terpisah chords – Black V3

 Intro:  F#m D A C#m F#m D A E 

Verse:
 A                
Andainya kau tahu
 D F#m 
Apa yang ada di dalam hatiku
             E 
Tersimpan takkan pernah berubah

 A               
Andainya kau tahu
 D F#m 
Apa maksudku lafazkan cintaku padamu
          E 
Dengan cara yang berbeda
 F#m D A E 
Oh mengapa seharusnya kita masih bersengketa

Chorus
      F#m D A E 
Demi cintaku, demi cintamu jangan biarku tersiksa
      F#m D A E 
Hembus nafasku, hembus nafasmu adalah udara yang sama
      F#m D A E D 
Kerna cintaku kerna cintamu sememangnya satu cinta, yeaa ...

              F#m E D 
Takkan terpisah.....
              F#m E D 
Takkan terpisah.....

Verse 2:
 A                
Andai ku termampu
 D F#m                    
Leraikan semua kekusutan 
              E 
yang melanda percintaan kita

 A                
Mungkin ini semua
 D F#m                    
Tetap menjadi satu pertanyaan 
             E 
slagi hati belum ada kepastian
 F#m D A E 
Oh mengapa seharusnya kita masih bersengketa,


Chorus
      F#m D A E 
Demi cintaku, demi cintamu jangan biarku tersiksa
      F#m D A E 
Hembus nafasku, hembus nafasmu adalah udara yang sama
       F#m D A E D 
Kerna cintaku kerna cintamu sememangnya satu cinta, ee ...


              F#m E D 
Takkan terpisah.....
              F#m E D 
Takkan terpisah.....

          F#m D A E 
Demi cintaku...
          F#m D A E 
Demi cintamu...


Chorus
      F#m D A E 
Demi cintaku, demi cintamu jangan biarku tersiksa
      F#m D A E 
Hembus nafasku, hembus nafasmu adalah udara yang sama
       F#m D A E D 
Kerna cintaku kerna cintamu sememangnya satu cinta, oo ...

              F#m E D 
Takkan terpisah.....
              F#m E D 
Takkan terpisah.....


 A                
Andainya kau tahu
 D F#m 
Apa yang ada di dalam hatiku

Black Hole Sun chords – Soundgarden V6

 , so be nice :) very simple, hopefully it sounds alright.

Cadd2 ( Can be played in different ways)
e --0--
B --3--
G --0--
D --2--
A --3--
E---X--

Intro:
 
e----------------|-----------|-----------------|------------|
B-------3--------|-------3---|-------3---------|-------2----|
G-----2----2-----|-----2-----|-----0----0------|------------|
D---2--------2---|---2-------|---0--------0----|-----4------|
A-0------------0-|-3---------|-----------------|---4--------|
E----------------|-----------|-3-------------0-|-2--------0-|
 
 
e----------------|-----------|
B----------------|-----------|
G-------3--------|--------4--|
D-----3----3-----|------2----|
A---3--------3---|----5------|
E-1------------1-|--0--------|



Verse:
       A Cadd2 
In my eyes, indisposed
       G F# 
in disguise as no one knows
           F E5 
hides the face, lies the snake
     A G F# 
the sun in my disgrace
         A Cadd2 
Boiling heat, summer stench
             G F# 
beneath the black the sky looks dead
         F E5 
call my name through the cream
          A G F# 
and I'll hear you, scream again
 

Chorus:
            F E         
Black hole sun, won't you come
     A G C 
wash away the rain
            F E 
Black hole sun, won't you come
           D 
won't you come 
           E 
won't you come


Verse 2:
     A Cadd2 
Stuttering, cold and damp
           G F# 
steal the warm wind tired friend
           F E5 
times are gone for honest men
                 A G F# 
and sometimes far too long to snakes
       A Cadd2 
In my shoes a walking sleep
        G F# 
and my youth i pray to keep
        F E5 
heaven send hell away
             A G F# 
no one sings like you anymore


Chorus:
            F E         
Black hole sun, won't you come
     A G C 
wash away the rain
            F E 
Black hole sun, won't you come
           D C 
won't you come    

               F E         
Black hole sun, won't you come
     A G C 
wash away the rain
            F E 
Black hole sun, won't you come
           D 
won't you come                                        
                   C E7 
Black Hole Sun! Black Hole Sun!
                 D       
Won't you come?
                   C E7 
Black Hole Sun! Black Hole Sun!
                 D       
Won't you come? 
                   C E7 
Black Hole Sun! Black Hole Sun!
                 D       
Won't you come? 
                   C E7 
Black Hole Sun! Black Hole Sun!

Break:
e---------------------------|
B---------------------------|
G---------------------------|
D---------------------------|
A---3--2--0--3--------------|
E------------------3--2--1--| x6


E---1/3 -3--------------|



              A                     Cadd
Hang my head, drown my fear
          G F# 
Till you all just disappear


Chorus

Takkan Terpisah chords – Black V4

 Intro:  F#m D A C#m F#m D A E 

Verse:
 A                
Andainya kau tahu
 D F#m 
Apa yang ada di dalam hatiku
             E 
Tersimpan takkan pernah berubah

 A               
Andainya kau tahu
 D F#m 
Apa maksudku lafazkan cintaku padamu
          E 
Dengan cara yang berbeda
 F#m D A E 
Oh mengapa seharusnya kita masih bersengketa

Chorus
      F#m D A E 
Demi cintaku, demi cintamu jangan biarku tersiksa
      F#m D A E 
Hembus nafasku, hembus nafasmu adalah udara yang sama
      F#m D A E D 
Kerna cintaku kerna cintamu sememangnya satu cinta, yeaa ...

              F#m E D 
Takkan terpisah.....
              F#m E D 
Takkan terpisah.....

Verse 2:
 A                
Andai ku termampu
 D F#m                    
Leraikan semua kekusutan 
              E 
yang melanda percintaan kita

 A                
Mungkin ini semua
 D F#m                    
Tetap menjadi satu pertanyaan 
             E 
slagi hati belum ada kepastian
 F#m D A E 
Oh mengapa seharusnya kita masih bersengketa,


Chorus
      F#m D A E 
Demi cintaku, demi cintamu jangan biarku tersiksa
      F#m D A E 
Hembus nafasku, hembus nafasmu adalah udara yang sama
       F#m D A E D 
Kerna cintaku kerna cintamu sememangnya satu cinta, ee ...


              F#m E D 
Takkan terpisah.....
              F#m E D 
Takkan terpisah.....

          F#m D A E 
Demi cintaku...
          F#m D A E 
Demi cintamu...


Chorus
      F#m D A E 
Demi cintaku, demi cintamu jangan biarku tersiksa
      F#m D A E 
Hembus nafasku, hembus nafasmu adalah udara yang sama
       F#m D A E D 
Kerna cintaku kerna cintamu sememangnya satu cinta, oo ...

              F#m E D 
Takkan terpisah.....
              F#m E D 
Takkan terpisah.....


 A                
Andainya kau tahu
 D F#m 
Apa yang ada di dalam hatiku


Feel free to share

Doves Tabs by The Black Angels

 Doves by The Black Angels:

I can't believe no one tabbed this yet! This song is awesome, especially if you
crank the gain, and have a tremolo pedal around.

Anyway, it's pretty easy so listen to the song and refer to the following chords:

First Chord:

E|--2--
B|--3--
G|--2--
D|--0--
A|--0--
E|--0--

Guitar In The Background is doing the following

After strumming along with the D Chord as well:

E|--2-h-3---------|
B|--------3-------|
G|-----------2----|
D|----------------|
A|----------------|
E|----------------|

Chords During The Bridge: C Maj, G Maj, and D Maj

C Major:

E|-----
B|--5--
G|--5--
D|--5--
A|--3--
E|-----

G Major:


E|------|
B|--12--|
G|--12--|
D|--12--|
A|--10--|
E|------|


Back To D Major:

E|--2--
B|--3--
G|--2--
D|--0--
A|--0--
E|--0--

Spacemen 3 Section Near The End:

E|-------------------------------------------------------------------|
B|-------------------------------------------------------------------|
G|-------------------------------------------------------------------|
D|-----12--------12-----10-----10-----8--------8-----7--7-8-7--7-8-7-|
A|--0------0--0------0------0------0-----0--0-----0------------------|
E|-------------------------------------------------------------------|


And that's it! Have fun! :D

Black Ballon chords – The Kills

 -------------------------------------------------------------------------------
                             BLACK BALLON - The Kills
-------------------------------------------------------------------------------
:PSP-
txtpereira

Feel free to contact me.
This is just an update over the first version, i have added some missing chords 
and the last chorus, and the tabs to the riff.

 D#5 G5 D#5 
Elevator straight into my skull
     G5 D#5 
The escalator rises as it falls
  F5 D#5 
I swear our chant is crashing in my mind
   F5 G5 
You can hold on but I wouldn't waste your time

 D#5 G5 
Farewell my black balloon
  D#5 G5 
Farewell my black balloon

 D#5 G5 D#5 
I've stood in a thousand street scenes
 G5 D#5 
Just around the corner from you
  F5 D#5 
On the edge of a dream that you have
  F5 G5 
Has anybody ever told you it's not coming true

(Solo guitar plays together)
 D#5 G5 
Farewell my black balloon
 D#5 G5 
Farewell my black balloon, (the weather had it's way with you)
 D#5 G5 
Farewell my black balloon, (the weather had it's way with you)
 D#5 G5 
Farewell my black balloon

 G5 ,  F5  x2,  G5  x2,  F5 C5 ,  A# > A > G# > G D#5 G5 
Farewell my black balloon
 D#5 G5 
Farewell my black balloon, (the weather had it's way with you)
 D#5 G5 
Farewell my black balloon, (the weather had it's way with you)
 D#5 G5 
Farewell my black balloon, (the weather had it's way with you)
 D#5 G5 
Farewell my black balloon, (the weather had it's way with you)
 D#5 F5 
Farewell my black balloon,
 G5 


--------------------//---------------//-------------------

Guitar riff>

e|--------------------------------------------------------------------------|
B|--8-8-/-6-6---------------------------------------------------------------|
G|--7-7-/-5-5-7-7-/--5------------------------------------------------------|
D|------------5-5-/--3------------------------------------------------------|
A|--------------------------------------------------------------------------|
E|--------------------------------------------------------------------------|

That is just reference to what "chords" should be played, listen to it.

Black Anthem chords – Gemini Five

 *First time making a tab. Dunno how to put chords on the lyrics though, please bear with me.



Intro:  Em ,  D ,  G ,  Em ,  D Em D 
Love like blood, Never let me down again

 Em D 
Love's like a gun, My wild-hearted son

 Em D 
Shoot you through the heart,The bullet in my side

 C D 
Here's an ode for you, An ode for you

 G Em D 
Like a song for the broken heart, seduce me again

 C D 
Dying just to thorn the deepest scars

 G Em D 
Songs of faith and devotion, all the pain you will know

 C D 
Reveals the darkest secret of your heart
              
                         Em 
You're a slave to black love


Please let it bleed painted scars that run so deep
Come with me only when I lose myself
I won't get through, Without the air, you leave me breathless
Stripped to the bone, just what we've become

Like a song for the broken heart, seduce me again
Dying just to thorn the deepest scars
Songs of faith and devotion, all the pain you will know
Reveals the darkest secret of your heart

                   G C 
You're a slave to black love

            D Em       
A slave to black love


Bridge:  Em ,  D ,  Em ,  D ,  C ,  D ,  Em ,  G ,  C ,  D 


Like a song for the broken heart, seduce me again
Dying just to thorn the deepest scars
Songs of faith and devotion, all the pain you will know
Reveals the darkest secret of your heart

 G D Em 
You're a slave to black love

                  D 
A slave to black love

 G D Em 
You're a slave to black love

                  D 
A slave to black love

 G D C 
You're a slave to black love

Suffering chords – Frank Black

 Chords
   D2 D Am *  G F **   C Csus4 
e-0--2--0---3--1----0--0--
b-3--3--1---3--1----1--1--
g-2--2--2---0--2----0--0--
d-0--0--2---0--3----2--3--
a-------0---x--3----3--3--
e-----------3-------------

*When playing the Am, hammer onto the (1) on the B string
**When playing the F, hammer onto the (2) on the G string

Intro
e---------
B-7-5-3-2-
g---------
d---------
A-5-3-2-0-
e---------
          “Yeah”

 D2 Am F G  (2x)

VERSES 1 and 2
        D2 Am 
Well I heard about your happiness
 F G D2 Am F G 
 And all the plans that you're involved in
 D2 Am 
Since you've gone you'd be impressed
 F G D2 Am 
To know I, too, have been evolving
 F G 
 But I don't think you comprehend

CHORUS:
           D G 
I've been suffering
           B Em 
I've been suffering
               Bb5 A5 G5 D G 
Guess I'll be suffering up around the bend

VERSE 3:
 Am 
I hung around in a leather bar
 Am F 
low e string               -5-3-1-
They threw me on the cement
 F 
I Slept all night in my plastic car
 F C 
a string         -8-7-3
Got in an accident
 C Csus4 
I brushed by you in the supermart
 C 
a string                      -3-  
And I had me a touch of what's real
                      Bb5 A5 G 
a string-2-----------1-
It was real when you crushed me with your steel

Black clouds roll through my mind
Who says anyway these halls are sovereign?
I am a hater of the human kind
So keep away, this hearts not softening
No, I don't think it's the end of this suffering

Speedy Marie chords – Frank Black V2

 Intro:  G F  (2x)  G C G F 

verse:
 F Am G 
 Had a bit part
 G 
 An endless reel
 Am G F 
 It always played in slo-mo
 F Am G 
 But now it's fast
 G 
 A spinning wheel
 C G F 
 I know the dynamo
 G F 
My heart
 G F 
Is cast

CHORUS:
 C G 
 Speedy Marie
 Bb Eb 
 Ahead of the now
 F C G 
 She's better built that's how
                 Bb 
She's built for speed
 Eb F        
  Speedy Marie
           C G F      
Speedy Marie

VERSE 2:
 F Am G 
 Oh, yes indeed
 G 
 I said to me
 Am G F 
 And so I sing this romaunt
 F Am G  
 It's not enough
 G 
 My liberty
 C G F 
 There is a thing I want
 G F 
I need
 G F 
I love

CHORUS

BRIDGE: (guitar doesn’t play til “And my one delight”)
      Bb C D F 
Juxtaposed in each moment's sight
      Bb C D F *
Everything that I ever saw
And my one delight
         Bb C Dm F 
Nothing can strike me in such awe
            Bb C Dm F 
Mouth intricate shapes the voice that speaks
        C F 
Always it will soothe
       Bb C Dm F 
Rarer none are the precious cheeks
        Bb C Dm F 
Is the size of each sculpted tooth
          C F 
Each lip and each eye
             Bb C Dm F 
Wise is the tongue, wet of perfect thought
             Bb C Dm         
And softest neck where always do I
 F C F 
 Lay my clumsy thoughts
        Bb C Dm F 
She is that most lovely art
       Bb C Dm F C F 
Happy are my mind and my soul and my heart

 Bb C Dm F Bb C Dm F C  

end on:  F

Calistan Tabs by Frank Black

 Am F C
Am F C
Am F C G F A F

  Lead ( Derek)
e--5----------3-----5----------------------------|
b--5-------------5-----2-------------------------|
g-------------------------2--0-------------------|
d-------------------------------3----2-----------|
a------------------------------------------------|
e---------------------------------------3---3/5--|


-------0-----------------------------0------------3--1--0-|
--1----------3--------3----------1-----2-------1----------|
----0-----0------2p0------2--0-----------2---0------------|
-------------------------------------------3--------------|
----------------------------------------------------------|
----------------------------------------------------------|
p = pull off


Am           F                  C         C\B
I took three days to drive down one street
Am        F                   C        C\B
The radio on, tuned to the big fleet
Am         F                      C
Invisible planes are cracking the concrete
G                F                A    F
That's just what some people say,  Hey Hey

Am            F                    C         C\B
I put down my blanket on Cigarette Butt Beach
Am            F                 G
I saw the old man, he was doing OK
Am                   F
He's making his last stand
       C           Am
On old bottles and cans
G             F            A    F
'Round there, Calistan way, Hey Hey

E             F          C
Used to be sixteen lanes
           B           Bb
Used to be Nuevo Spain
           G
Used to be Juan Wayne
E          F          C
Used to be Mexico
           B           Bb
Used to be Navajo
           G        Am      F    C    C/B
Used to be yippy-ay-I-don't know

Am F G
Am F C G F A F

Am               F                  C     C\B
Went in from the weather when I got wheezy
Am           F              G
I play some pachinko I play pachisi
Am            F                    C
And St. Anne is still making it breezy
       G                  F            A    F
In the valley of tar that once was L.A. Hey Hey

Am          F                           C    C\B
And my best friend he's the king of karaoke
Am             F                    G
He struck up a chord and he took it away
Am         F
Out of the pan
C          Am
And into Japan
G             F             A    F
'Round there, Calistan way,  Hey Hey

Pause.. 2-3-4

E             F          C
Used to be sixteen lanes
           B           Bb
Used to be Nuevo Spain
           G
Used to be Juan Wayne
E          F          C
Used to be Mexico
           B           Bb
Used to be Navajo
           G        Am      F    C    C/B
Used to be yippy-ay-I-don't know

Am F C
Am F C
Am F C G F A F

Radio Lizards Tabs by Frank Black

 hey do you know if pot's got any papers?

C  Am  C  Am  G  F7

------------------------------------------------1------|
---1--------1--------1--------1-----------------1------|
---0--------2--------0--------2--------0--------2------|
---2/3\2----2/3\2----2/3\2----2/3\2----0/3\0----1/3\1--|
---3--------0--------3--------0--------2--------3------|
---------------------------------------3--------1------|

help me out!

C  G  F7  Am  D  Dm  G  F7

-----------1-------2---1-------1---|
---1-------1---1---3---3-------1---|
---0---0---2---2---2---2---0---2---|
---2---0---1---2---0---0---0---1---|
---3---2---3---0-----------2---3---|
-------3---1---------------3---1---|

just keep repeating these two killer progressions for ever.

whenever you feel like ending, end on A minor.

Six-sixty-six chords – Frank Black

 (Written by Larry Norman)

 G 
 In the midst of the war, He offered us peace,
        C G 
And he came like a lover, From out of the east,

With the face of an angel and the heart of a beast,
       C D G 
His intentions were six-sixty-six.
 G 
 He walked up to the temple, With gold in his hands,
        C G 
And he bought off the priests and propositioned the land,

And the world was his harlot, and laid in the sand,
           C D G 
While the band played six-sixty-six
 G 
 We served at his table, and we slept on the floor,
        C G 
But he starved us and beat us, and nailed us to the door

Well, I'm ready to die, I can't take any more
         C D G 
And I'm sick of his lies and his tricks

Solo chords:  G C G C D G G 
 He told us he loved us, But that was a lie,
           C 
There was blood in his pockets
     G 
And death in his eyes

Well, my number is up, And I'm willing to die
        C D 
If the band will play six
        C D 
If the band will play six-sixty
        C D G    
If the band will play six-sixty-six

Dead Mans Curve chords – Frank Black

 Intro

 C (/ G )   C/G# 
---------------|
---------------|
-5-5-5-5-5-5---|
-5-5-5-5-5-5---|
-3-3-3-3-3-3---|
(3)----4-4-4---|
He sort of strums the G here.

Verse

 C Am 
Maybe I'll kick it

 C E 
Though it's so sweet honey

 F A 
Been up on the mountain

 F A C 
With nothing to eat


Chorus

 C (/ G )              C/G# G 
The boy so lonely

                G/G# Am 
Night so cold

                        F E 
Everything is so mean

                 F C 
It's getting so old

Deamon Girl chords – Frank Black

 Intro & bridge:  C# A 
Verses:  E A F# A 

I had a garage full of 66 guitars
Each night I'd play them underneath the starry stars
There was much dancing and so many  <no idea=""> friends
I never thought, I never thought, I never thought that it would end.

But then one morning I saw one of them was gone
just 65 guitars to play my happy songs
then 64 then several more till 17
I didn't know a demon stole them when I dreamed

A Demon Girl
A Demon Girl
Demon Girl

The parties ended, as my songs grew very dark
The guitars stolen rained a tear down on my spark
I blamed my druggie pals, but suspects they increase
I blamed my plumber, and I even blamed my priest

Demon Girl

Thai Chung, my gardener, said, "Stay awake this night
Hide in the trashcan, cause there's something just ain't right"
And then I saw her, she was from another world
A demon girl, so beautiful, a demon girl, a demon

A Demon Girl
A Demon Girl
She's a Demon Girl

I said, "Please marry me, and bring back my guitars"
She said, "I will, but first, talk to my devil Pa"
And after dinner he said, "Promise me this night
You'll never let this demon girl out of your sight"

We had a happy home, and parties that were wild
Had our own tv show, and we even had a child
But then one morning I took up my fishing pole
And when I got back, she had moved to Idaho

She was a Demon Girl
A Demon Girl
A Demon Girl
She was a Demon Girl
A Demon Girl</no>

The Swimmer chords – Frank Black

 [INTRO] - only piano is playing, but of course you can strum along

 C#m C A# C C#m G# C# D# 

[VERSE 1] 
 C#m C 
 In the wake of his chariot
 A# C 
 You swam toward the latitudes
 C#m G# 
 Leaving for happier times
 C# D# 
 Florida far behind
 C#m C 
 Trying your best you were 
 A# C 
 Ignoring the rescuers
 C#m G# 
 You'd gone so very long
 C# D#  
 You were so very strong

[BRIDGE]
 Cm F 
 The scene was so tragic
 Cm C#     ( G# )
 But that was the magic

[CHORUS]
 D# A# 
 Will you never drown?
 G# G 
 Will you learn to use
 D# A# G G# 
 Some forgotten part, some forgotten part?
 D# A# 
 Are you going down 
 G# G        
 Where the ballyhoos
 D# G# A# D# 
 and the tritons are?
          G# G 
 And the tritons are

  C# Cm A#m Cm C# G# C#m D# 

[VERSE 2]
 C# Cm 
 You were so incredible
 A#m Cm 
 Finding all the edible
 C# G# 
 Prize of the sea, 
 C#m D# 
 Prize of the sea


[VERSE 3] (acoustic guitar is a twelve string i think)

 C#m C 
 In the wake of his chariot
 A# C  
 You swam toward the latitudes
 C#m G# 
 Leaving for happier times
 C# D# 
 Florida far behind


[BRIDGE]
 Cm F 
 In division pelagic
 Cm C# G# 
 You were choragic


[CHORUS]
 D# A# 
 Will you never drown?
 G# G 
 Will you learn to use
 D# A# G G# 
 Some forgotten part, some forgotten part?
 D# A# 
 Are you going down 
 G# G        
 Where the ballyhoos
 D# G# A# D# 
 and the tritons are?
          G# A# D# 
 and the tritons are?
          G# A# G D# 
 And the tritons are

Its For You chords – Cilla Black

 It's For You:Cilla Black.
#7 UK, #17 Australia and #79 on
BB Hot 100 on CAPITOL Records
in 1964.
(*** This is a request..so, I hope I got it
     right.***)


INTRO:  Gm Eb Cm 

#1.
 Cm Fm Eb Ab 
I'd say someday I'm bound to give my 
 Db F# Fm C F# C 
heart away..when I do.....it's for you.
 Eb Fm Eb Gm C 
True love, your love seems to be all 
 Db F# Fm Bb Fm Eb 
I'm thinking of..but it's true...it's for you.

#2.
 Dm7 C G Cm 
They said that love was a lie, told me that I 
              F Fm C 
should never try to find somebody who'd be kind..
 Fm G Em7 
kind to only me.
 D G Cm 
So, I just tell them they're right..who wants 

 A  fight?
                   Fm C    
Tell them I quite agree..nobody'd love me.

BRIDGE:
 Bb Cm Eb F Fm 
Then, I look at you and love comes, love shows, 
 Eb C Db F# Fm Bbm 
I give my heart and no one knows that I do, it's 
     Cm         
for you. 

INTERLUDE:  F C Eb C Fm .. Gm Fm Eb Cm .. Bbm Db F# Fm C Bb 


#3.
 Eb C Bbm Eb D 
It's for you........
 Dm7 C G Cm 
They said that love was a lie, told me that I 
              F Fm C 
should never try to find somebody who'd be kind..
 Fm G Em7 
kind to only me.
 D G Cm 
So, I just tell them they're right..who wants 

 A  fight?
                   Fm C    
Tell them I quite agree..nobody'd love me.

BRIDGE:     
 Bb Cm Eb F Fm 
Then, I look at you and love comes, love shows, 
 Eb C Db F# Fm Bbm 
I give my heart and no one knows that I do, it's 
     Cm Db    
for you, it's for you.

OUTRO:
 C B Fm Gm C Db C 
it's for you.........it's for you.


A sixties smash from Kraziekhat.

A Better Man chords – Clint Black V2

 Intro: |   A E/G# F#m E   |    B    |     B    | 
       |   A E/G# B B   |    E    |     E    | 

Verse
 E F#m 
  What do you say when it's over?
            A E 
Don't know if I should say anything at all
  E F#m 
  One day we're rollin' in the clover
 A E 
  Next thing you know we take the fall
         E F#m 
Still I think about the years since I first met you
          A E 
And the way it might have been w/out you here
          E F#m 
I don't know if words from me can still upset you
                A B E 
But I've just got to make this memory stand clear

Chorus
            A E/G# F#m E B  
I know I'm leav-in'   he---re  a better man
     A E/G# F#m E B  
For know-in'   you  this way
           A E/G# F#m E B  
Things I couldn't do     before now I think I can
         A E/G# B E 
And I'm leav-in'  here a better man

Break (same as Intro)

Verse
 E F#m 
  Guess I always knew I couldn't hold you
         A E 
But I'd never be the one to set you free
           E F#m 
Just like some old nursery rhyme your mama told you
      A B E 
You still believe in some old meant-to-be's

Chorus X 2
Outro (same as Intro)

Yesterday Today Tomorrow chords – Black Label Society V2

 Tuned 1/2 Step Down Eb,Ab,Db,Gb,Bb,Eb 
Black Label Society
Unblackened 
Yesterday, Today, Tomorrow


Verse 1

 G Bm 
Something's always going on
 G D 
Whatever's right is always wrong
 C G 
But I don't mind, I don't mind
 G Bm 
The clouds are here, sun has come
 G D 
So confused, so numb
 C G 
But I don't mind, I don't mind 

Chorus

 Bm G 
Burnt and faded out
 Em C 
Faded out, faded out
 Bm G 
Burnt and faded out
 Em C 
Faded out

Verse 2

 G Bm 
Take all I can in stride
 G D 
No you ain't the only one in this life
 C G 
Now I don't mind, I don't mind
 G Bm 
Once you find yourself over here
 G D 
Next you find yourself over there
 C G 
But I don't mind, I don't mind

Chorus

 Bm G 
Burnt and faded out
 Em C 
Faded out, faded out
 Bm G 
Burnt And Faded out
 Em C 
Faded out

Verse 3 

 G C    
Ain't no, ain't no yesterdays
 A C 
Forget tomorrow, forget it all
 G 
We've got today.
 G C  
Oh there ain't no yesterdays
 A C 
Forget tomorrow, forget it all
 G 
We've got today.


Great song!! Hope you enjoy playing it 

Cross_Rhoads  \m/