Tag: black

Rebel Love Song Acoustic chords – Black Veil Brides

 This song I tried to figure out myself for an acoustic version my band is doing. Hope
these work out for you, if you suggest any changes, let me know please! 

Capo 1st Fret

Rebel Love Song-BVB

(VERSE 1)

 Am F Am 
I cannot hide what's on my mind
           G 
I feel it burning deep inside.
 Am F Am 
     A passion crime to take what's mine
              Dm/C 
Let us start living for today.

(BRIDGE)

 Am 
Never gonna' change my mind

 F     We can leave it all behind

 C     Nothin's gonna' stop us
    G 
No not this time

(CHORUS)

     Am G 
So take your hand in mine
              C 
It's ours tonight
              F 
This is a rebel love song
   Am G 
Hearts will sacrifice
             C 
It's do or die
            F 
This is a rebel love song.

(lightly hold the strings around 12th fret and strum a few beats)

(VERSE 2)

 Am F Am 
My outlaw eyes have seen their lies
             G 
I choke on all they had to say
 Am F Am 
When worlds collide what's left inside
             Dm/C 
I hold on tight and hear you pray

(BRIDGE [exactly the same as the first time])

Never gonna' change my mind
We can leave it all behind
Nothin's gonna' stop us
No not this time

(CHORUS[the same])

So take your hand in mine
It's ours tonight
This is a rebel love song

Hearts will sacrifice
It's do or die
This is a rebel love song


 Am F 
Wild and running for one reason
 Am G 
They can't stop us from our freedom
(Wild and running for one reason
They can't stop us from our freedom)

(SAME EXCEPT STRUM PALM MUTED)
Never gonna' change my mind
We can leave it all behind
Nothin's gonna' stop us
     G  let ring out
No not this time

(the rest is exactly the same and repeats)

So take your hand in mine
It's ours tonight
This is a rebel love song

Hearts will sacrifice
It's do or die
This is a rebel love song

So take your hand in mine
It's ours tonight
This is a rebel love song

Hearts will sacrifice
It's do or die
This is a rebel love song


I hope this helped! :) Like i said, if there's anything I could/should change, just let
me know.

Black Boy Lane Tabs by Babyshambles V3

                  Black Boy Lane - Babyshambles
                   Michael Johnston

Basically just taken the correct parts from both other tabs as there is some correct tab 
although its masked with incorrect tab.

Intro:

e|-x-x-x-x-5-5-5-5-5-5-x--|
B|-x-x-x-x-5-5-5-5-5-5-7b-|
G|-x-x-x-x-5-5-5-5-5-5-7b-|
D|-x-x-x-x-7-7-7-x-7-x-x--|
A|-x-x-x-x-7-7-7-x-7-x-x--|
E|-x-x-x-x-x-x-x-x-x-x-x--|

Verse:

e|-5-5-5-x-5-5-x----|     |--10-10-10-10-10--x-------|
B|-5-5-5-x-5-5-x----|     |--10-10-10-10-10--x-------|
G|-5-5-5-x-5-5-7b~--| x6  |--10-10-10-10-10-12b~-----| x2
D|-7-7-7-x-7-7-7b~--|     |--12-12-12--x-12-12b~-----|
A|-7-7-7-x-x-7-x----|     |--12-12-12--x-12--x-------|
E|-x-x-x-x-x-x-x----|     |---x--x--x--x--x--x-------|

Chorus:

F                     E
 Do you think you can help
         D          C
Can you make me a call
    F          E                D          C
I'm so new to town I can't get nothing at all
E
Today, are you dancing today?

Agadoo chords – Black Lace

 SONG: Agadoo
ARTIST: Black Lace
YEAR: 1984
 Party Party
KEY:  A , then  B 

Normally, I find it rather hard to work out the music to a disco song, but this one 
seems pretty easy.

INTRO:
 A E7 

CHORUS:
      A E7 
Ag-a-doo-doo-doo, push pineapple, shake the tree
                                           A 
Aga-doo-doo-doo, push pineapple, grind coffee
                                                        E7 
To the left, to the right, jump up and down and to the knees
                                         D A 
Come and dance every night, sing with a hula melody

 A E7 

VERSE 1:
 A E7 
I met a hula mistress somewhere in Waikiki
                                              A 
Well she was sellin' pineapple, playin' ukulele
                                                      E7 
And when I went to the girl, come on and teach me to sway
                                                          A 
She laughed and whispered to me, yes come tonight to the bay

PRE-CHORUS 1:
            D A 
The lovely beach, in the sky the moon of Kauai
          F#7 B 
Around calypso sarong we'll all be singin' this song

Repeat CHORUS (x2)

 A ,  E7 ,  A 

Pre-Chorus 2:
     F#7 A 
And down on the shore they gather romance
     B D E 
She showed me much more, not only to dance...

(drum break)

CHORUS (key change:  B ):
     B F#7 
Aga-doo-doo-doo, push pineapple, shake the tree
                                           B 
Aga-doo-doo-doo, push pineapple, grind coffee
                                                        F#7 
To the left, to the right, jump up and down and to the knees
                                         E B 
Come and dance every night, sing with a hula melody
(x2)

PRE-CHORUS 3:
            E B 
The lovely beach, in the sky the moon of Kauai
          G#7 C 
Around calypso sarong we'll all be singin' this song

Repeat Previous CHORUS 2 times

OUTRO:  B ,  E ,  F#7 ,  B 

And that's your lot.
Feel free to comment.

Black Fella White Fella chords – Warumpi Band

 Black Fella White Fella


 A C G F 
Black Fella, White Fella, it doesn't matter what your colour.
 A C G F 
As long as you a true fella, as long as you a real fella.
 A C G F 
All the people of different races with different lives in different places.
 A C G F 
It doesn't matter what your name is, we got to have lots of changes.
 A C 
We need more brothers if we're to make it.
 G F 
We need more sisters if we're to save it.


 A E D 
Are you the one that's gonna stand up and be counted?
 A E D 
Are you the one who's gonna be there when we shout it?
 A E D 
Are you the one that's always ready with a helping hand?
 A E D 
Are you the one who understands these families plans?


 A C G F 
Black Fella, White Fella, Yellow Fella, any Fella.
 A C G F 
It doesn't matter what your colour as long as you a true fella.
 A C G F 
All the people of different races with different lives in different places.
 A C G F 
It doesn't matter which religion, it's all the same if the ship is sinking.
 A C 
We need more brothers if we're to make it.
 G F 
We need more sisters if we're to save it.


 A E D 
Are you the one that's gonna stand up and be counted?
 A E D 
Are you the one who's gonna be there when we shout it?
 A E D 
Are you the one that's always ready with a helping hand?
 A E D 
Are you the one who understands these families plans?


 E D A 
Stand up, stand up and be counted.
 E D A 
Stand up, stand up and be counted.


 A E D A 
Are you the one that's always ready with a helping hand?
 A E D A 
Are you the one who understands these families plans?


Enjoy!

https://www.youtube.com/watch?v=tq0Nd2Btf1I

Black Boy chords – Coloured Stone

 Black Boy - Coloured Stone


 Em Bm C G Em Bm 
A shy black boy, you came into the city.
    C G 
To learn about life and how his people are living.
 Em Bm C G 
He's very stubborn, he's just a child and now his life is mystified.


       Em Bm 
Black boy (black boy), black boy (black boy).
     C G 
The colour of your skin is your pride and joy!
       Em Bm C G 
Black boy (black boy), black boy (black boy). Your life is not destroyed.


    Em Bm 
He didn't know the school but they called him "Black Boy".
    C G 
He hardly talked to the girls and boys.
       Em Bm C G 
Don't be a fool just obey the rules 'cause then you'll learn the truth.


       Em Bm 
Black boy (black boy), black boy (black boy).
     C G 
The colour of your skin is your pride and joy!
       Em Bm C G 
Black boy (black boy), black boy (black boy). Your life is not destroyed.


     Em Bm 
And one day you'll grow up to be a man,
    C G 
to learn and live and understand.
 Em Bm C G 
Sticks and stones may break your bones but names will never hurt you.
 Em Bm C G 
You'll be the one who's having fun so just keep learning on.


       Em Bm 
Black boy (black boy), black boy (black boy).
     C G 
The colour of your skin is your pride and joy!
       Em Bm C G 
Black boy (black boy), black boy (black boy). Your life is not destroyed.



Enjoy!

https://www.youtube.com/watch?v=Sa7M1cRThc4 

Act Nice And Gentle Tabs by Black Keys V3

 THE BLACK KEYS

Act Nice and Gentle

 Danleary

Key

 b : Bend
 r : Release
 / : Slide into
 \ : Slide out of
 h : Hammer on
 p : Pull off
(-): Ghost note
 ~ : Vibrato
 x : Mute
 U : Up stroke
 D : Down stroke
 T : Fret with thumb
 . : Staccato 

___________________________________________________________

Standard Tuning
___________________________________________________________

Intro

Delta fingerstyle using thumb and index. 

 E
                       
e|--------------0----0----------|--------------0----0----------|
B|---------0h2-----2p0----0-----|---------0h2-----2p0----0-----|
G|-----0h1----------------------|-----0h1----------------------|
D|---2-------2-----2------------|---2-------2-----2------------|
A|------------------------------|------------------------------|
E|0------0------0------0----3b--|0------0------0------0----3b--|

______________________________________________________________ 

Verse

very slightly different than the intro.

e|--------------0----0--------|--------------0----0-------|
B|-------0-2-------2----------|-------0-2----0--2-0--2p0--|
G|---0h1----------------------|---0h1---------------------|
D|---2-------2-----2----------|---2-------2-----2------2--|
A|----------------------------|---------------------------|
E|0------0------0------0--3^--|0------0------0------0-----|
    Where'd you get...                 goodness knows...


e|--2--2-----2-----2p0---0--|---------------|
B|--2--2-----2-----2p0-2-0--|---------------|
G|--------------------------|---------------|
D|--------------------------|---------------|
A|0----0--0--0--0--0--------|---------------|
E|--------------------------|---------------|
    Just show...


e|2--2----2--2--2-0---0--|---------------|
B|0--0----0--0--0---2----|---------------|
G|2--2----2--2--2--------|---------------|
D|1--1----1--1--1--------|---------------|
A|2--2----2--2--2--------|---------------|
E|-----------------------|---------------|
  Act nice... 

______________________________________________________________ 

Chorus 

It looks a bit strange, but it's really just an 
A barre chord with the thumb on the bass note, and an A6 
when using that pinky on the 7th fret. 

e|5-----5---------|5---5-5---------|
B|7-----5---------|7---7-5---------|
G|----------6-----|----------6-----|
D|------------7---|------------7---|
A|----------------|----------------|
E|5-----5---------|5---5---5-------|


e|5-----5---------|5---5---5-------|
B|7-----5---------|7---7---5-------|
G|----------6-----|----------6-----|
D|------------7---|------------7\--|
A|----------------|----------------|
E|5-----5---------|5---5---5-------|
                   false eye lashes...

____________________________________________________________________

And that's the gist of it, with some minor variation here and there.
The outro is basically just a slowed down intro, with some 
embellishments round the E major chord.

Juniors Instrumental Tabs by Black Keys V3

 THE BLACK KEYS

Junior's Intrumental

 Danleary

Key

 b : Bend
 r : Release
 / : Slide into
 \ : Slide out of
 h : Hammer on
 p : Pull off
(-): Ghost note
 ~ : Vibrato
 x : Mute
 U : Up stroke
 D : Down stroke
 T : Fret with thumb
 . : Staccato 

___________________________________________________________

Standard Tuning
___________________________________________________________


As always (or nearly anyways), delta style fingerpicked using only thumb 
and index.

e|-----------------------------------------------------------|
B|------3--------3h5-3p0--------------------------3----------|
G|2-2-0---2-------------------2h4-2p0-----2p0-2/4---4\2p0----|
D|--------------------------------------------------------2--|
A|-------------------------------------2------0--------------|
E|------------0-----------0----------------------------------|


e|-------------------------------------------|
B|--3h5-3p0-----------------------3----------|
G|-------------2h4-2p0----2p0-2/4---4\2p0----|
D|----------------------------------------2--|
A|---------------------2------0--------------|
E|0---------0--------------------------------|

0:12


e|---------------------------------------------------|
B|----------------------------------------3----------|
G|------0h2-0h2-------2-0h2-----2p0---2/4---4\2p0----|
D|------------------------------------------------2--|
A|0-----------0-----------0-----------0--------------|
E|---------------------------------------------------|


0:16

e|---------------------------------------------|
B|---------------------------3-----------------|
G|------2---0h2-----2--0-----------2------0h2--|
D|---------------------------------------------|
A|0-----0-----0-----------0-----0--------------|
E|---------------------------------------------|


0:21

e|-------------------------------------------|
B|--3h5-3p0-----------------------3----------|
G|-------------2h4-2p0----2p0-2/4------------|
D|-------------------------------------------|
A|-------------------------------------------|
E|0------------------------------------------|


e|-------------------------------------------|
B|--3h5-3p0-----------------------3----------|
G|-------------2h4-2p0----2p0-2/4---4\2p0----|
D|----------------------------------------2--|
A|---------------------2------0--------------|
E|0---------0--------------------------------|

0:29

e|-----------------------------------------------|
B|----------------------------------------3------|
G|------0h2-0h2-----2---0h2-----2---0h2-----2/4--|
D|-----------------------------------------------|
A|0-----0-----------0-----0-----0-----0----------|
E|-----------------------------------------------|

0:34

e|-----------------------------------------------|
B|----------------------------------------3------|
G|------2---0h2-----2---0h2-----2---0h2-----2/4--|
D|-----------------------------------------------|
A|0-----0-----0-----0-----0-----------0----------|
E|-----------------------------------------------|


0:39

e|------------------------------------------|
B|--3h5-p0-----------------------3----------|
G|------------2h4-2p0----2p0-2/4---4\2p0----|
D|---------------------------------------2--|
A|--------------------2--2---0--------------|
E|0-0---------0-----------------------------|


0:44


e|-----------------------------------------|
B|--3h5-3p0--------------------------------|
G|-------------2h4-2p0----2p0-2/4---4\2----|
D|-----------------------------------------|
A|---------------------2------0------------|
E|0-0-------0------------------------------|


0:48


e|----------------------------0----------------|
B|------------------------------3/5------------|
G|------2---0h2-----2---0h2----------4\2---0---|
D|---------------------------------------------|
A|0-----0-----0-----0-----0----------0-----0---|
E|---------------------------------------------|

0:

Little Black Submarines intro Tabs by Black Keys

 THE BLACK KEYS

Little Black Submarines

 Danleary

Key

 b : Bend
 r : Release
 / : Slide into
 \ : Slide out of
 h : Hammer on
 p : Pull off
(-): Ghost note
 ~ : Vibrato
 x : Mute
 U : Up stroke
 D : Down stroke
 T : Fret with thumb
 . : Staccato 

___________________________________________________________

Standard Tuning
___________________________________________________________

A detailed look at the fingerpicked acoustic section. Delta style using only 
index and thumb. The chords are just the cowboy versions of Am, G, D, A, and C.


e|----0---------0-----------------|--------------------------------|
B|----1-------------1-----------1-|----1---------1-------1-------0-|
G|----2-----2-----------2---0h2---|----------2-------2-------2-----|
D|----2-------2-------2-------2---|----2-------2-------2-------2---|
A|0-------0-------0-------0-------|0-------0-------0-------0-------|
E|--------------------------------|--------------------------------|

___________________________________________________________________________


e|--------------------------------|----2---------------------------|
B|----1---------0-----0---------0-|----------3---0-----2---------0-|
G|----------2---------------0-----|----2-------2-------------2-----|
D|----2-------2-------0-------0---|0-------0-----------2-------2---|
A|0-------0-----------------------|----------------0-------0-------|
E|----------------3-------3-------|--------------------------------|



e|--------------------------------|----------------------0---------|
B|----1---------0-----0---------0-|----2---------2-----------2-----|
G|----------2---------------0-----|----------2-------2-----------0-|
D|----2-------2-------0-------0---|----2-------2-------2-------2---|
A|0-------0-----------------------|0-------0-------0-------0-------|
E|----------------3-------3-------|--------------------------------|

___________________________________________________________________________


e|--------------------------------|----2---------------------------|
B|----1---------0-----0---------0-|----------3---0-----2-----------|
G|----------2---------------0-----|----2-------2-------------------|
D|----2-------2-------0-------0---|0-------0-----------2-----------|
A|0-------0-----------------------|----------------0-------0---2---|
E|----------------3-------3-------|--------------------------------|


e|--------------------2-----------|----------------------0---------|
B|----1---------0-----------3---0-|----2---------2-----------2-----|
G|----------0---------2-------2---|----------2-------2-----------0-|
D|----2-------2---0-------0-------|----2-------2-------2-------2---|
A|3-------3-----------------------|0-------0-------0-------0-------|
E|--------------------------------|--------------------------------|


___________________________________________________________________________




e|--------------------------------|----2---------------------------|
B|----1---------0-----0---------0-|----------3---0-----2-----------|
G|----------2---------------0-----|----2-------2-------------------|
D|----2-------2-------0-------0---|0-------0-----------2-----------|
A|0-------0-----------------------|----------------0-------0---2---|
E|----------------3-------3-------|--------------------------------|


e|--------------------2-----------|--------------0-----------------|
B|----1---------0-----------3---0-|----2-------------2-------------|
G|----------0---------2-------2---|----------2-----------2---------|
D|----2-------2---0-------0-------|----2-------2-------2-----------|
A|3-------3-----------------------|0-------0-------0-------0---2---|
E|--------------------------------|--------------------------------|


e|--------------------2-----------|----------------------0---------|
B|----1---------0-----------3---0-|----2---------2-----------2-----|
G|----------0---------2-------2---|----------

The Moan Tabs by Black Keys V3

 The Moan (John Peel Sessions)

Key

 b : Bend
 r : Release
 / : Slide into
 \ : Slide out of
 h : Hammer on
 p : Pull off
(-): Ghost note
 ~ : Vibrato
 x : Mute
 u : Up stroke
 d : Down stroke
 T : Fret with thumb
 . : Staccato 


This song is played delta fingerstyle using only the thumb and
index fingers. Thumb and fingerpick may have been used, but I believe 
Dan went bare fingers by this time.

____________________________________________________________________________

Intro


e|3--3-3-3--3-3--3-3-|2--2-2-2--2-2--2-2-|1--1-1-1--1-1--1---|--------0---|
B|3--3-3-3--3-3--3-3-|2--2-2-2--2-2--2-2-|1--1-1-1--1-1--1-0-|--------0---|
G|4--4-4-4--4-4--4-4-|3--3-3-3--3-3--3-3-|2--2-2-2--2-2--2-0-|2b------0---|
D|5--5-5-5--5-5--5-5-|4--4-4-4--4-4--4-4-|3--3-3-3--3-3--3-0-|--------0---|
A|5--5-5-5--5-5--5-5-|4--4-4-4--4-4--4-4-|3--3-3-3--3-3--3-0-|----------2-|
E|3--3-3-3--3-3--3-3-|2--2-2-2--2-2--2-2-|1--1-1-1--1-1--1---|------------|


e|0-------------------0-|0-------------------------|
B|0------------3------0-|0------------------0h2p0--|
G|1---------------2---0-|1--------------0h1--------|
D|2---0---2-----------0-|2---0---2---2-------------|
A|2-----2---------------|2-----2-------------------|
E|0---------0---0---0---|0---------0---0--0---0----|


e|0---------------------|0---------------------|
B|0------------3------0-|0------------3------0-|
G|1---------------2---0-|1---------------2---0-|
D|2---0---2-----------0-|2---0---2-----------0-|
A|2-----2---------------|2-----2---------------|
E|0---------0---0---0---|0---------0---0---0---|

____________________________________________________________________________

4:07

e|------------------|-------------------0-|
B|------------------|-----------3-------0-|
G|------------------|----0----------2---0-|
D|2-2-0---0-2-2---0-|2-2-----2----------0-|
A|------2-------2---|------2--------------|
E|0-0-------0-0-----|0-0-------0--0---0---|
  Poor boy... 

e|--0-----------------------|0-------------------0-|
B|--0-----------------0h2p0-|0------------3------0-|
G|--1-------------0h1-------|1---------------2---0-|
D|2-----0---2---2-----------|2---0---2-----------0-|
A|--------2-----------------|2-----2---------------|
E|----0-------0-----0---0---|0---------0---0---0---|


4:17

e|------------------|-------------------0-|
B|------------------|-----------3-------0-|
G|------------------|----0----------2---0-|
D|2-2-0---2-2-2---0-|2-2-----2----------0-|
A|------2-------2---|------2--------------|
E|0-0-------0-0-----|0-0-------0--0---0---|

Poor boy


e|--0----------------------0-|--0----------------------0-|
B|--0-------------3--------0-|--0-------------3--------0-|
G|--1------------------2---0-|--1------------------2---0-|
D|2-----0---2--------------0-|2-----0---2--------------0-|
A|--------2------------------|--------2------------------|
E|----0-------0-----0----0---|----0-------0-----0----0---|


4:26


e|------------------|-------------------0-|
B|------------------|-----------3-------0-|
G|------------------|----0----------2---0-|
D|2-2-0---2-2-2---0-|2-2-----2----------0-|
A|------2-------2---|------2--------------|
E|0-0-------0-0-----|0-0-------0--0---0---|

 Poor boy


e|--0---------------------------|--0----------------------0-|
B|--0--------------------0h2p0--|--0-------------3--------0-|
G|--1---------------0h1---------|--1------------------2---0-|
D|2-----0---2---2---------------|2-----0---2--------------0-|
A|--------2---------------------|--------2------------------|
E|----0-------0---0---0----0----|----0-------0-----0----0---|

4:36

e|------------------|-------------------0-|
B|------------------|-----------3-------0-|
G|------------------|----0----------2---0-|
D|2-2-0---2-2-2---0-|2-2-----2----------0-|
A|------2-------2---|------2--------------|
E|0-0-------0-0-----|0-0-------0--0---0---|

 Girl do me no wrong...


e|0-------------------0-|0------

Black Velvet Band chords – Dubliners V3

 There were a few differences in the lyrics of other versions of this song, so
I changed them so they hold true to the original Dubliners version and I
placed the chords in correspondence to where they change in the song. You
need to play it by ear but overall it should be fairly easy to pick up.
Standard tuning, adh mór!

           G                                  
In a neat little town they call Belfast,
 C A7 D7 
apprentice to trade I was bound
    G Em 
An Many an hours sweet happiness,
        C D G 
have I spent in that neat little town
                                C A7 D7 
A sad misfortune came over me, which caused me to stray from the land
     G Em C D G 
Far away from me friends and relations, betrayed by the black velvet band


Chorus:

 G                                    
Her eyes they shone like diamonds
 C D7 
I thought her the queen of the land
         G Em 
And her hair it hung over her shoulder
      C D G 
Tied up with a black velvet band


 G                              
I took a stroll down Broadway,
 C A7 D7 
meaning not long for to stay
 G Em 
When who should I meet but this pretty fair maid
 C D G 
come a-traipsing along the highway
 G C A7 D7 
She was both fair and handsome, her neck it was just like a swan
 G Em C D G 
And her hair it hung over her shoulder, tied up with a black velvet band

-Chorus-

 G 
I took a stroll with this pretty fair maid, 
 C A7 D7 
and a gentleman passing us by
 G Em 
Well I knew she meant the doing of him, 
 C D G 
by the look in her roguish black eye
 G C A7 D7 
A goldwatch she took from his pocket, and placed it right in to my hand
 G Em C D G 
And the very first thing that I said was, bad ‘cess to the black velvet band

-Chorus-

 G 
Before the judge and the jury,
 C A7 D7 
next morning I had to appear
 G Em 
The judge, he says to me: "Young man,
 C D G 
your case it is proven clear
 G C A7 D7 
We'll give you seven years penal servitude, to be spent far away from the land
 G Em C D G 
Far away from your friends and relations, betrayed by the black velvet band"

-Chorus-

 G 
So come all you jolly young fellows
 C A7 D7 
a warning take by me
 G Em 
When you are out on the town me lad,
 C D G 
beware of the pretty colleens
 G C A7 D7 
they’ll feed you with strong drink, Me lads, 'til you are unable to stand
 G Em C D G 
And the very first thing that you'll know is, you've landed in Van Diemens Land

Outro Chorus:

 G 
Her eyes they shone like diamonds
 C D7 
Her neck, it was just like a swan
         G Em 
And her hair it hung over her shoulder
      C<

What You Gave Me chords – Black Prairie

 A  (Intro)
             E 
When you’re home
    Bm 
TV on with aching
 D 
ashes burned down
           A 
a child cries

              E 
What are you on?
          B Bm 
I can’t stand the taste of it 
              D 
in my mouth
                                 A           
All I want for you is one more song


 Bm E Abm A 
   In the evening, lately
 D E Abm A 
   In the evening, lately
 B 
   I’ve been needing more than
 D A 
   What you gave me
 E Bm D A  (repeat 1x)


             E 
What did we do?
           Bm 
Now we’re on the road to nowhere
         D 
and the only way to save you
        A 
is let go.

              E 
What are you on?
            Bm 
I was only on the wayside
         D 
and the only way to save us
     A 
was let go.

 Bm E Abm A 
   In the evening, lately
 D E Abm A 
   In the evening, lately
 B                          
   I’ve been needing more than
 D A 
   What you gave me
 E Bm D A  (repeat 1x)


 Bm E Abm A 
   In the evening, lately
 D E Abm A 
   In the evening, lately
 B 
   In the evening, lately
 D 
   I’ve been needing more than
 A 
   What you gave me

My Disease solo Tabs by The Letter Black

 So this tab, its a little different but I thing it sounds good ^.^

contact me on Xbox ^.^ XxLoneWolf541xX

use loads of wah, lol but sounds good without it.
b----------------------------------------------------------13br-|
g--------10h-12-12b-10-----------------10h-12-12b-10-----12-----|
d-10h-12---------------12-------10h-12---------------12---------|
a---------------------------------------------------------------|
d---------------------------------------------------------------|

e---------------------------------------------------|
b---------------------------------------------------|
g--------10h-12-12b-10---------10h-12-12b-10--------|
d-10h-12--------------12--10h-12---------------12---|
a---------------------------------------------------|
d---------------------------------------------------|


e------13-13-12-12-------------13-13-12-12--------------|
b------------------13-13-10-10--------------13-13-15-15-|
g-------------------------------------------------------|
d-------------------------------------------------------|
a-------------------------------------------------------|
d-------------------------------------------------------|


I don't really know the end, so I made one up that sounds pretty good.

hammer on and pull off these


e-----------10-13-10-----------10-13-10--------13-15-13-------13-15-13--3----|
b-10-13-10-----------10-13-10----------13-15-13--------13-15-13--------------|
g----------------------------------------------------------------------------|
d----------------------------------------------------------------------------|
a----------------------------------------------------------------------------|
d----------------------------------------------------------------------------|

Made by Steven

b= bend
r= return bend
*= Artificial/Pinch Harmonic (let thumb hit string right after pick to squeal)

Desperate Man Tabs by Black Keys

 THE BLACK KEYS

Desperate Man (Live in Sydney)

 Danleary

Key

 b : Bend
 r : Release
 / : Slide into
 \ : Slide out of
 h : Hammer on
 p : Pull off
(-): Ghost note
 ~ : Vibrato
 x : Mute
 U : Up stroke
 D : Down stroke
 T : Fret with thumb
 . : Staccato 

___________________________________________________________

Standard Tuning
___________________________________________________________

Intro

Delta fingerstyle using thumb and index. He plays with a slide
on his pinky.

 
                       
e|---3------------|---3---------------|
B|---3--------3---|---3---------------|
G|---4--------3---|---4---------------|
D|---5------3-3---|---5--5\3---5v-----|
A|------3h5-------|----------5--------|
E|3-------------0-|3---------------0--|


e|---3------------|---3---------------|
B|---3--------3---|---3---------------|
G|---4--------3---|---4--------3/5----|
D|---5------3-3---|---5--5\3-------5--|
A|------3h5-------|----------5--------|
E|3-------------0-|3------------------|


e|---3------------|---3---------------|
B|---3--------3---|---3---------------|
G|---4--------3---|---4---------------|
D|---5------3-3---|---5--5\3---5v-----|
A|------3h5-------|----------5--------|
E|3-------------0-|3---------------0--|

_________________________________________________

Verse

Pretty much the same as the intro, just less slides.


e|---3------------|---3---------------|
B|---3--------3---|---3---------3-----|
G|---4--------3---|---4---------3-----|
D|---5------3-3---|---5-------3-3-----|
A|------3h5-------|------3h5----------|
E|3-------------0-|3---------------0--|

See her walkin... etc...

___________________________________________________________

Chorus

Finally after a full minute, some variation!

1:01

e|3---------0-|------6b------|3---------0-|------6b------|
B|3-----6b--0-|5-----6b------|3-----6bv-0-|5-----6b------|
G|4---------0-|5-------------|4---------0-|5-------------|
D|5---------0-|5---0---------|5---------0-|5---0---------|
A|5-----------|3---0---------|5-----------|3---0---------|
E|3---0-------|----0------0--|3---0-------|----0---------|

___________________________________________________________

1:10

Back to the intro for the second verse.

___________________________________________________________

Chorus

1:56

Same as before.

___________________________________________________________

Bridge

2:05


e|---------------|---------------|---------------|----------------|
B|---------------|---------------|---------------|----------------|
G|---------------|---------------|---------------|--------------0-|
D|---5------5----|---5------3-5--|---5------5----|---5------3-5-0-|
A|------3h5------|------3h5------|------3h5------|------3h5-----0-|
E|3------------0-|3--------------|3------------0-|3---------------|

___________________________________________________________

Solo

2:13

e|----------------|-------------------|
B|8-8-8-8-8-6-6-6-|6------------------|
G|----------------|--7-7-7-7-6-5-3-5--|
D|----------------|-------------------|
A|----------------|-------------------|
E|----------------|-------------------|

e|----------------------|------6-8-8-6--|
B|6/8-8-8-8-8-6-6-6-6---|----8----------|
G|--------------------7-|7-7------------|
D|----------------------|---------------|
A|----------------------|---------------|
E|----------------------|---------------|


e|----------------|-------------------|
B|8-8-8-8-8-6-6-6-|6------------------|
G|----------------|--7-7-7-7-6-5-3-5--|
D|----------------|-------------------|
A|----------------|-------------------|
E|----------------|-------------------|


e|------------------|-----------------|
B|6/8-8-8-6-6-6-----|-----------------|
G|--------------7-5-|3----------------|
D|------------------|--5-3------------|
A|------------------|------5-3--------|
E|------------------|----------6b-0---|______

Paranoid solo Tabs by Black Sabbath V3

 Black Sabbath - Paranoid (Improvised Solo)

E|-----------------------------------------------------|
B|-----------------------------------------------------|
G|--9b7--9--9--7--9b7----------------------------------|
D|---------------------9p7--5h7--5h7----------5--------|
A|------------------------------------5b7--7-----7--7--|
E|-----------------------------------------------------|



E|-----------------------------------------------------------------|
B|----------------------------8--10b8--10b8--10--8--------8--------|
G|------------7h9--9--7h9--9------------------------9--9-----9--9--|
D|--5h7--7/9-------------------------------------------------------|
A|-----------------------------------------------------------------|
E|-----------------------------------------------------------------|



E|---------------------------------------------17b17b17--15--------------------|
B|--12--12--15--12--15/17--15--17--15--17--15----------------17--17b17b15--17--|
G|-----------------------------------------------------------------------------|
D|-----------------------------------------------------------------------------|
A|-----------------------------------------------------------------------------|
E|-----------------------------------------------------------------------------|



E|-------------------------------------------------------------------------------------|
B|-----------------------------12--14--12--14b12--14-----------------------------------|
G|--12h14--12--14--12--14--12-------------------------12h14--14--14--------------------|
D|-------------------------------------------------------------------12h14--14--14-----|
A|-------------------------------------------------------------------------------------|
E|-------------------------------------------------------------------------------------|



E|--------------------------|
B|--------------------------|
G|--12----------12----------|
D|------14--14------14--14--|
A|--------------------------|
E|--------------------------|

March Of The Black Queen Ending solo Tabs by Queen

 -------------------------------------------------------------------------------
: Ben Brown
 benjabrown235

First tab guys some critical feedback would be nice.


e|---------------------------------------------------------------------------|
B|------11b---11b---11rb---11---9---11---9---7---9---11---11b--11---9---11---|
G|---------------------------------------------------------------------------|
D|---------------------------------------------------------------------------|
A|---------------------------------------------------------------------------|
E|---------------------------------------------------------------------------|

e|---------------------------------------------------------------------------|
B|---7---9119119119---7---7--------------------------------------------------|
G|---------------------------------------------------------------------------|
D|---------------------------------------------------------------------------|
A|---------------------------------------------------------------------------|
E|---------------------------------------------------------------------------|



************************************

| /   slide up
| \   slide down
| h   hammer-on
| p   pull-off
| ~   vibrato
| +   harmonic
| x   Mute note
| b   Bend
| pb  Pre-bend
| br  Bend release
| pbr Pre-bend release
| brb Bend release bend

************************************

If You See Me Tabs by Black Keys V3

                                   ~~~~~~~~~~~~~~~~~~~~~~~~~~~~~~~~~~~~~~~~
                                                If You See Me
                                                  Black Keys
                                                Thickfreakness
                                  ~~~~~~~~~~~~~~~~~~~~~~~~~~~~~~~~~~~~~~~~
: Connor O.
Tuning: Standard



Pretty fast paced song. As a result, I'm not going to time everything out. I'll
only time the parts that might cause serious confusion for the unaided ear. 

A lot of the bass-line parts (e.g. - at 0:10) are hard to hear on account 
of the drums. I tried to tab out the bass-line as best I could but I'm sure I've
missed a beat here or there. I put *'s under the chord boxes to signify bassline
progression chronologically, so if I didn't tab the bassline at a certain point
you'll be able to see where it belongs. 

Comment or message any ideas or corrections. Please rate my tab. If you've got
problems with the tab, I'd encourage you to contact me with those problems so I
can fix the tab or provide advice for playing. Don't just give me a poor rating
and not give me any feedback. The idea is for us all to work together to create
a perfect finished product. This tab just represents the best I can do. It's 
definitely up for peer review.



Key:
where # represents a fret number

#h# - hammer
#p# - pull
/ \ - slides, up and down respectively.
#b# - bend from normal note up to achieve bended note.
#r# - release bend from bended note to normal note.
#pb - bend up on # then attack and release
#b  - a slight bend a.k.a. a curl.
 x  - mute




Intro:


  0:00
    
e|---------0-----------------------|
B|---------0-------3-------2-------|
G|-----0h1---------1-------1-------|
D|---------------------------------|
A|---------------------------------|
E|-0-----------0-------0-----------|
   *   *   *   *   *   *   *   *

  

e|---------0-----------------------|
B|---------------------------------|
G|-----0h1-------------------------|
D|---------------------------------|
A|---------------------------------|
E|-0---------------0---------------|
   *   *   *   *   *   *   *   *



e|---------0-----------------------|
B|---------0-------3-------2-------|
G|-----0h1---------1-------1-------|
D|---------------------------------|
A|---------------------------------|
E|-0-----------0-------0-----------|
   *   *   *   *   *   *   *   *

  

e|---------0-----------------------|
B|---------------------------------|
G|-----0h1-------------------------|
D|---------------------------------|
A|---------------------------------|
E|-0---------------0---------------|
   *   *   *   *   *   *   *   *

  0:08

e|---------0-----------------------|
B|---------0-------3-------2-------|
G|-----0h1---------1-------1-------|
D|---------------------------------|
A|---------------------------------|
E|-0-----------0-------0-----------|
   *   *   *   *   *   *   *   *

  0:10

e|---------0-----------------------|
B|---------0-----------3-----------|
G|-----0h1---------2/4-----2-------|
D|-----------------------------0h2-|
A|---------------------------------|
E|-0-----------0-------------------|
   *   *   *   *   *   *   *   *



e|---------0-----------------------|
B|---------0-------3-------2-------|
G|-----0h1-------------------------|
D|---------------------------------|
A|---------------------------------|
E|-0-----------0-------0-----------|
   *   *   *   *   *   *   *   *

  0:14
                           If  you
e|---------0-----------0-----------|
B|---------0-----------3-----------|
G|-----1---------------1-----------|
D|---------------------------------|
A|---------------------------------|
E|-0-----------0---0---0---3---4---|



Verse 1:


  0:16
   see me    comin'
e|---------------------3-----------|
B|---------------------2-----------|
G|--------

Long Black Rifle chords – Kingston Trio

         Kingston Trio  - Long Black Rifle      Rick in Macon

1ST VERSE
 G F G F 
Come closer, my love, and you'll hear my tale.
        G F G D 
I'll make you cold. It'll turn you pale.
        D G 
It's a tale of a man's never ending love
         F G 
and the long, black rifle.

Chorus:
 G F G 
He wed a woman sworn to another
 G F G  
and, in a rage, the other man
 G F G 
Shot him down with a long, black rifle,
 G F G  
shot him down and away he ran.

2ND VERSE
   G F G F 
A prairie man loved a city maid.
         G F G D  
Was the love he took worth the price he paid,
        D G                 
When a man ends up at the smoky end
      F G  
of a long, black rifle?


(Chorus above)

3RD VERSE
     G F G F 
His dyin' words I repeat to you:
          G F G D 
"You can never kill love when love is true."
    D G F G 
It lives when only the rust is left of the long, black rifle.

(Chorus)
then repeat last line of chorus:
 G F G 
Shot him down and away he ran.

Rick in Macon   

Wonderful Life chords – Black V4

 Its'a Wonderfull Life (Black)  


Intro:  Asus2  -  Am   2x
 

 Am G/B Cmaj7  -  C G6/B Am         
Here I go out to see again,      the sunshine fills my hair
      G/B C 
And dreams hang in the air
 Am G/B C G6/B Am 
Gulls in the sky and in my blue eyes, you know it feels unfair
         G/B C 
There’s magic everywhere
 Am G/B C Dm 
Look at me standing, here on my own again
 Am G/B C Dm 
Up straight in the sun- shine_________


                         Am C 
Refr. 1:     No need to laugh and cry
        Am Dm G 
It’s a wonderful, wonderful life
            Am C 
No need to run and hide
        Am Dm G 
It’s a wonderful, wonderful life

 Am G/B Cmaj7  -  C G6/B       
Sun in your eyes, the heat is in your hair,     they seem to hate 
     Am G/B C 
You,     because you’re there
 Am G/B Cmaj7  –  C G6/B Am 
and I need a friend, Oh, I need a friend,    to make me hap-  py
                G/B C 
Not stand here on my own
 Am G/B C Dm 
Look at me standing,   here on my own again
 Am G/B C Dm 
Up straight in the sun- shine_________ 


                         Am C 
Refr. 2:     No need to laugh and cry
        Am Dm G 
It’s a wonderful, wonderful life
             Am C 
No need to run and hide
        Am Dm G 
It’s a wonderful, wonderful life
 Am G/B Cmaj7  –  C G6/B Am 
  I need a friend, oh, I need friend,     to make me hap-  py
 G/B C 
not alone________ 
 Am G/B C Dm 
  Look at me standing, here on my own again
 Am G/B C Dm 
   Up straight in the sun- shine__________


                          Am C 
Refr. 2:     No need to laugh and cry
        Am Dm G 
It’s a wonderful, wonderful life
             Am C 
No need to run and hide
        Am Dm G 
It’s a wonderful, wonderful life


                      Am C 
Refr:     No need to run and hide
        Am Dm G 
It’s a wonderful, wonderful life
            Am C 
No need to run and hide
        Am Dm G 
It’s a wonderful, wonderful life
 Am Dm G 
Wonderful life, wonderful life

 C

Stop Stop Tabs by Black Keys V3

 The Black Keys - Stop Stop [Transposed half step down]

The intro is a two guitar section. Gtr 1 has to strum the chords downwards ONCE
above the tabs while Gtr 2 has to do the intro solo below:

Gtr 1:   C                          Cm

Gtr 2:E--------------------------------------------------------|
      B-------4-6--6/8--6-4-6-8----------4-6--6/8--6-4-6-4-----|
      G--5--5---------------------3-5--5-------------------5-3-|
      D--------------------------------------------------------|
      A--------------------------------------------------------|
      E--------------------------------------------------------|

Gtr 1:   F                          Fm
                                      <let ring="">
Gtr 2:E-------------------------------------------------------|
      B-------4-6--6/8--6-4-6/8---------------------6b8r6-4---|
      G--5--5---------------------3/5-----------------------3-|
      D-------------------------------------------------------|
      A-------------------------------------------------------|
      E-------------------------------------------------------|

[VERSE:]
C
You're wound up like a weapon
You've got an evil streak
They told me to stay away
But I was much too weak

[CHORUS:][Chords exactly aligned to the words you're supposed to strum them.]

                C     A#             F         F
Yeah, you gotta, stop stop can't you hear me call and singing
C      A#        F
  Stop stop it girl
F               C     A#             F        F
Yeah, you gotta, stop stop can't you see me fall into you
C      A#        F    F
  Stop stop it girl


C
I hounded you forever
But you never saw
This love was so strong it shoulda [DRUMS GO SILENT]
Been against the law

[PLAY CHORUS]

[PRE SOLO:] (Once played alone, continue repeating this section while the other guitar 
is playing the actual solo.)

E------------------------------------------------------------|
B------------------------------------------------------------|
G---------------------------------10--10--10--10--8--8--8--8-|
D-10--10--10--10--10--10--10--10--10--10--10--10--8--8--8--8-|
A-10--10--10--10--10--10--10--10-----------------------------|
E------------------------------------------------------------|


[SOLO:] Insanely use vibrato on B string.

E---------------------------------------------------------------------------|
B--5///13--13--13--13--13--13--13---13/11--11--11--11--11/10--10---10-11-10-|
G---------------------------------------------------------------------------|
D---------------------------------------------------------------------------|
A---------------------------------------------------------------------------|
E---------------------------------------------------------------------------|

E---------------------------------------------------------------------------|
B--5///13--13--13--13--13--13--13---13/11--11--11--11--11/10--10---10-11-10-|
G---------------------------------------------------------------------------|
D---------------------------------------------------------------------------|
A---------------------------------------------------------------------------|
E---------------------------------------------------------------------------|

E--------------------------------------------------------------------------|
B--5///13--13--13--13--5//13--13--13--13--13/11--11--11--11--11/10--10-----|
G------------10--10--10---------10--10--10---------------------------------|
D--------------------------------------------------------------------------|
A--------------------------------------------------------------------------|
E--------------------------------------------------------------------------|

E---------------------------------------------------------------|
B-8-8----8/10/8---6--6-8-8---8--8--8--6--6--4--4/6------4-------|
G---------------------------------------------------------------|
D------------------------------

Black Bay chords – Canines

 Tuning: EADGBe

Chords used in this song.
   Bm F#m A Em/G Em/Gb D C 
I--2----2-----0-----3---------2-----2----0---I
I--3----2-----2-----0---------0-----3----1---I 
I--4----2-----2-----0---------0-----2----0---I
I--4----4-----2-----2---------2-----0----2---I
I--2----4-----0-----2---------2----------3---I
I-------2-----------0---------0--------------I

Intro:
F#m, A,  I----------3---3---2-2----I  G
         I----------0---0---0-0----I 
         I----------0---0---0-0----I 
         I----------2---2---2-2----I
         I-0------- 2---2---2-2----I
         I---3-2----0---0---0-0----I

Verse 1:
 Bm   AI-2-0---I         F#m 
    EI-----2-I
Black bay whered you go
                                     A 
I cant find any light from your boats
      AI-0-----I 
      EI---3-2-I        Em/G Em/Gb Bm D 
And it only makes         me feel    more alone


Verse 2:
 Bm   AI-2-0---I         F#m 
    EI-----2-I
Grey fog dont you tire
                                           A 
Of the dark isolation of night
  AI-0-----I 
  EI---3-2-I    Em/G Em/Gb Bm D 
I know that the pressure     gives you life
  AI-0-----I 
  EI---3-2-I    Em/G Em/Gb Bm D 
I know that the truth comes with the quiet
                            Em 
But Im just so afraid of mine


Chorus:
        G A 
So I blame the ones that I love
                           D G 
When I am no one to act as a judge
      G A 
I know the bottles not best
                          D G 
But Im just so starved for some kind of rest
           F#m A 
From these lungs
      Em/G Em/Gb G         
And my tied tongue


Interlude:
 D ,  F#m ,  Em/G ,  D ,  Bm ,  A ,  Em/G ,  G ,  Bm ,  C ,  B ,  G ,  Bm ,  G ,  Bm ,  F#m ,  G 


Verse 3:
 Bm   AI-2-0---I       F#m 
    EI-----2-I
What makes a man cave
                                 A 
To the simple escape from his days
  AI-0-----I 
  EI---3-2-I    Em/G Em/Gb Bm D 
Is it only a triumph      over fear
  AI-0-----I 
  EI---3-2-I     Em/G Em/Gb Bm D 
Of what happens when waking  cease to be
                                 Em 
Or do we secretly love these tear

        
http://songs.caninesmusic.com/